Vital Signs - As I Feel Chords & Tabs

 

As I Feel Chords & Tabs

Vital Signs Chords & Tabs

Version: 1 Type: Bass Tab 0 ratings
1 star 2 stars 3 stars 4 stars 5 stars
comments

As I Feel Bass Tab

   
vitalsign5@aol.com
intro:
g-----------------------------------------|
d-----------------------------------------|
a-777-666-555-444-3-2-777-666-555-444-3-2-|
e-----------------------------------------|

g-----------------------------------------|
d-----------------------------------------|
a-999-888-777-666-5-4-999-888-777-666-5-4-|
e-----------------------------------------|

g--------------------------------------------------------------|
d--------------------------------------------------------------|
a-10-10-10-9-9-8-7-12-12-12-11-11-10-9-14-14-14-14-14-14-14-14-|
e--------------------------------------------------------------|
[ Tab from: http://www.guitartabs.cc/tabs/v/vital_signs/as_i_feel_btab.html ]
verse:
g--------------------------------------|
d----------9------------------9--------|
a-7-7-9/10---10-9-7--7-7-9/10---10-9-7-|
e--------------------------------------|

g--------------------------------------|
d--------------------------------------|
a---6-7/9-7-6h7p6----6-7/9-7-6h7p6-----|
e-7----------------7-------------------| x4

chorus:
g-------------19-------17-------14-----|
d----14--------------------------------|
a----------17----17-15----15-12----12--|
e-12----12-----------------------------| x4

middle riff:
g---------------------------------------------|
d---------------------------------------------|
a---------------------------------------------|
e-12-0-10-0-8-0-7-0-5-3-12-0-10-0-8-0-7-0-5-3-|

g--------------------------------------------|
d--------------------------------------------|
a--------------------------------------------|
e-12-0-10-0-8-0-7-0-5-0-333-555555-----------| x2

order
intro
verse
chorus
verse
chorus
middle riff
chorus x2
Comments