Vital Signs - Aitebar Chords & Tabs

 

Aitebar Chords & Tabs

Vital Signs Chords & Tabs

Version: 2 Type: Tab 0 ratings
1 star 2 stars 3 stars 4 stars 5 stars
comments

Aitebar Tab

Vital Signs - Aitebar
Unplugged

INTRO.

e-|-12-----11-----9--------9------------12|
B-|----9------9-----9---12---12-10-9-10-10|
G-|------9------9-----9-----------------9-|
D-|---------------------------------------|
A-|---------------------------------------|
E-|---------------------------------------|

e-|-12-----11-----9--------9------------12|
B-|----9------9-----9---12---12-10-9-10-10|
G-|------9------9-----9-----------------9-|
D-|---------------------------------------|
A-|---------------------------------------|
E-|---------------------------------------|

s - slide
p - pulloff
h - hammer on
[ Tab from: http://www.guitartabs.cc/tabs/v/vital_signs/aitebar_tab_ver_2.html ]
e-|------------------------|---------------------|
B-|-----9s14-12-10-9h10p9-7|-----9s17-16-14-12-10|
G-|-6-9--------------------|-6-9-----------------|
D-|------------------------|---------------------|
A-|------------------------|---------------------|
E-|------------------------|---------------------|

after some lyrics

e-|--------------------|---------5-4----|---------2------|---------|
B-|---12-10-9---------9|---5-7-5-----7-5|---2-5-2---5-2-5|---5-7-5-|
G-|-9---------11-9-11--|-4--------------|-2--------------|-4-------|
D-|--------------------|----------------|----------------|---------|
A-|--------------------|----------------|----------------|---------|
E-|--------------------|----------------|----------------|---------|

after this song starts **kia hua agar...*

This is all the guitar part of the song that i could figure out.
One of my favourites.

Other songs will be coming later on.

Have Fun.
Usman
Comments