Vision Of Disorder - Suffer Chords & Tabs

 

Suffer Chords & Tabs

Vision Of Disorder Chords & Tabs

Version: 2 Type: Tab 0 ratings
1 star 2 stars 3 stars 4 stars 5 stars
comments

Suffer Tab

#----------------------------------PLEASE NOTE---------------------------------#
#This file is the author's own work and represents their interpretation of the #
#song. You may only use this file for private study, scholarship, or research. #
#------------------------------------------------------------------------------#

"Suffer" by Vision of Disorder
From the Album:NY's Hardest
Words by Tim Williams Music by VOD
Tabbed by John Ginnings (fgpp76c@prodigy.com)
No tab for this song in the archive yet.
[ Tab from: http://www.guitartabs.cc/tabs/v/vision_of_disorder/suffer_tab_ver_2.html ]
Tune all notes to D-G-B#-E#-A#-D      () this is plammutting
W/Heavy Distortion                    ~~ this means do bends
Riff1
D--------------------------------|Do this about 15x
A--------------------------------|
E--------------------------------|
B--------------------------------|
G-2222222222222222222------------|
D-0000000000000000000------------|
Riff2
D---------------------------------------------Do this riff----------------| 2x
A-------------------------------------------------------------------------|
E-------------------------------------------------------------------------|
B--3333333333333-5-4--777777777777---333333333333-5-4--7777777(777777)----|
G--1111111111111-3-2--555555555555---111111111133-3-2--5555555(555555)----|
D-------------------------------------------------------------------------|
Riff3
D---------------|
A---------------|
E---------------|
B---------------|
A-7--5~~~~~2----|
D-5--3~~~~~0----|
Riff4
D-----------------------------| Do this 4x
A-----------------------------|
E-----------------------------|
B-----------------------------|
G--5\666/5\7777--2------------|
D--3\444/3\5555--0------------|
Riff5
D------------------------------------|Do this 4x
A------------------------------------|
E------------------------------------|
B------------------------------------|
G-2--(22222)---2--(22222345)---------|
D-0--(00000)---0--(00000123)---------|
Riff6
D--------------------------------------|
A--------------------------------------|
E--------------------------------------|
B---(0000)-4(0000)-5(0000)-4--5\7------|
G-2-(0000)-2(0000)-3(0000)-2--3\5------|
D-0------------------------------------|
Riff7                              Suffer!!!!!
D-----------------------------------------|
A-----------------------------------------|
E-----------------------------------------|
B-3---(333)/4\3---8---(888)/9\8-----------|Let the open Chord ring for 3
G-1---(111)/2\1---6---(666)/7\6-----------|seconds.
D-----------------------------------------|
Riff8       Play the first and second Riff then go into this....
D--------------------------------------|
A--------------------------------------| Second guitar just plays a melodic tune
E--------------------------------------| Which is easy to play just listen.
B--------------------------------------|
G---(2222222222222222222222222)--------|
D---(0000000000000000000000000)--------|
Riff9           No go back into the 6th riff then play this
D----------------------------------------------------------|
A----------------------------------------------------------|
E----------------------------------------------------------|
B-----------------------6\7-----------------------4\5------|
G--2-(22)-2-(22)-2-(22)-4\5--2-(22)-2-(22)-2-(22)-2\3------|
D--0-(00)-0-(00)-0-(00)------0-(00)-0-(00)-0-(00)----------|
Riff10
D----------------------------------------------------|
A----------------------------------------------------|
E----------------------------------------------------|
B-----------------------6\7------------------4\5/4\9-|
G--2-(22)-2-(22)-2-(22)-4\5--2-(22)-2-(22)-2-2\3/2\7-|
D--0-(00)-0-(00)-0-(00)------0-(00)-0-(00)-0---------|

Lyrics
Verse1
To be young and to be pure to be bold only
to rise is one to our strength,our sacrificial tendencies,
These were the gifts provided by our statued god's,
They gave us their definitions,
To religion,to destruction,to whom to believe,
Can't they see these days are changing this is how it's gonna be
until we DIE!!!

Life is deceptive to all the believers,
Our objective, to sort and decipher,
Their generation will rot in the golden grooves,
Our generation slapped with a fuckin X!

Suffer..and don't you bitch about your pain,
Suffer..and don't you bitch about your that you hide,deep inside

Repeat first verse:

Melodic Part:
Ruptured focus sown at the eyes,
Some people are just to stupid, to realize,
That they had vision for you and I,
I'll do my very best to try and fight against,

Their invasion coming from the dying fields,
Their days of labor withers their alliance,
Their generation will rot in the golden grooves,
Our generation prevails in the fuckin end,

To destroy, to employ, to cock that gun,
One time time too many well don't choose this one,
One way sight point of view, one way change,
Our destruction is for memory.

 I think the lyrics are right but oh well, you got the tabbed part.
Interested in the band? Check out www.vod.com
Comments