Virus Nine - Cutthroat Chords & Tabs

 

Cutthroat Chords & Tabs

Virus Nine Chords & Tabs

Version: 1 Type: Tab 0 ratings
1 star 2 stars 3 stars 4 stars 5 stars
comments

Cutthroat Tab

Drop D tuning

*Repeated notes, listen to song for exact number and timing

------------------------------12*---
--8*-10*----8*-10*----8*-10*--------
------------------------------------
------------------------------------
------------------------------------
------------------------------------
[ Tab from: http://www.guitartabs.cc/tabs/v/virus_nine/cutthroat_tab.html ]
Main Riff
------------------------------------
------------------------------------
------------------------------------
-7*---10*---12*---10---7*-----------
-7*---10*---12*---10---7*-----------
-7*---10*---12*---10---7*-----------

Middle Riff
------------------------------------
------------------------------------
------------------------------------
-5*--7*---5*--7*---5*--7*---3*--2*--
-5*--7*---5*--7*---5*--7*---3*--2*--
-5*--7*---5*--7*---5*--7*---3*--2*--

And the only other part to the song...(where hes just yelling...)
------------------------------------
------------------------------------
------------------------------------
-7--7----7--7-----7--7-----7--7-----
-7--7----7--7-----7--7-----7--7-----
-7--7----7--7-----7--7-----7--7-----
Comments