Virus - Rats In The City Chords & Tabs

 

Rats In The City Chords & Tabs

Virus Chords & Tabs

Version: 1 Type: Tab 0 ratings
1 star 2 stars 3 stars 4 stars 5 stars
comments

Rats In The City Tab

                  rats in the city - virus
-------------------------------------------------------------------------------
Tabbed by:menstrual cramp
Email:azpunkskater88@hotmail.com

Tuning:standerd     p  pull-off

   figure rythem out

   intro
[ Tab from: http://www.guitartabs.cc/tabs/v/virus/rats_in_the_city_tab.html ]
e|---------------------------------------------------------------------------|
B|---------------------------------------------------------------------------|
G|-------------------------------5-------7------5-----5----------------------|
D|--7-----10----9-----10----------------------------------------x4-----------|
A|--0-----0-----0-----0----------3-------5------3-----2----------------------|
E|---------------------------------------------------------------------------|
   pre- verse
e|---------------------------------------------------------------------------|
B|---------------------------------------------------------------------------|
G|---2----5---5----5-----5----7----5---4-------------------------------------|
D|---2--------------------------------------------------x2-------------------|
A|---0----3---2----3-----3----5----3---2-------------------------------------|
E|---------------------------------------------------------------------------|
   verse
e|---------------------------------------------------------------------------|
B|---------------------------------------------------------------------------|
G|--22------22------22------22--------5---7---5---4--------------------------|
D|--22------22------22------22----------------------------x4-----------------|
A|--00-3p0--00-3p0--00-3p0--00-3p0----3---5---3---2--------------------------|
E|---------------------------------------------------------------------------|
  pre-chours  chours
e|----------|-----------------------------------------------------------------|
B|----------|-----------------------------------------------------------------|
G|----------|--2--------5-----------------------------------------------------|
D|--7-----7-|--2--------5-----5----x4-----------------------------------------|
A|--7-----7-|--0--------3-----5-----------------------------------------------|
E|--5-----5-|-----------------3-----------------------------------------------|
Comments