Virus - Full Circle Chords & Tabs

 

Full Circle Chords & Tabs

Virus Chords & Tabs

Version: 1 Type: Tab 0 ratings
1 star 2 stars 3 stars 4 stars 5 stars
comments

Full Circle Tab

Band: The Virus
Title: Full Circle
CD: Singles and Rarities

Tabbed by: Ramone
Date: Tuesday, April 27, 2004


* = let note ring

Guitar 1&2
Intro

E|---4X---------------6X----      |---------------
B|--------------------------      |---------------
G|--44-4--------------12----      |----4-----44---
D|--44-4-----5--------12---- (2X) |----4-----44---
A|--22-4-----5--------10----      |----2-----22---
E|-----------3--------------      |----*------*---
             *         


Guitar 1&2
Verse

E|--------------------------
B|--------------------------
G|--44-4--------77-7--------
D|--44-4--77-7--77-7--55-5-- (4x)
A|--22-2--77-7--55-5--55-5--
E|--------55-5--------33-3--

Guitar 1
(Bridge)

El--------------------------------------------------------
Bl---------------3-2-0--3-2-0---------------0-2-3--0-2-3--
Gl--44-44-44-44----------------44-44-44-44----------------
Dl--44-44-44-44----------------44-44-44-44----------------
Al--22-22-22-22----------------22-22-22-22----------------
El--------------------------------------------------------

Guitar 2
(Bridge)

E|---4X---------------6X----
B|--------------------------
G|--44-4--------------12----
D|--44-4-----5--------12---- (2X)
A|--22-4-----5--------10---- 
E|-----------3--------------
             *         

Guitar 1&2
(Chorus)

E|--------------------------
B|--------------------------
G|--44-4--77-7--------------
D|--44-4--77-7--55-5--77-7-- (4X)
A|--22-2--55-5--55-5--77-7--
E|--------------33-3--55-5--

Guitar 1&2
Verse

E|--------------------------
B|--------------------------
G|--44-4--------77-7--------
D|--44-4--77-7--77-7--55-5-- (6x)
A|--22-2--77-7--55-5--55-5--
E|--------55-5--------33-3--

Guitar 1
(Bridge)

El--------------------------------------------------------
Bl---------------3-2-0--3-2-0---------------0-2-3--0-2-3--
Gl--44-44-44-44----------------44-44-44-44----------------
Dl--44-44-44-44----------------44-44-44-44----------------
Al--22-22-22-22----------------22-22-22-22----------------
El--------------------------------------------------------

Guitar 2
(Bridge)
[ Tab from: http://www.guitartabs.cc/tabs/v/virus/full_circle_tab.html ]
E|---4X---------------6X----
B|--------------------------
G|--44-4--------------12----
D|--44-4-----5--------12---- (2X)
A|--22-4-----5--------10---- 
E|-----------3--------------
             *         
Guitar 1&2
(Chorus)

E|--------------------------       |-----
B|--------------------------       |-----
G|--44-4--77-7--------------       |--4--
D|--44-4--77-7--55-5--77-7-- (4X)  |--4--
A|--22-2--55-5--55-5--77-7--       |--2--
E|--------------33-3--55-5--       |--*--


Guitar 1
(Funky Talkin Part)

E|-------
B|-------
G|--444--
D|--444--
A|--222--
E|----*--



E|------------------------------------------------------
B|------------------------------------------------------
G|--4-44--4-44--4-44--4-44------------------------------
D|--4-44--4-44--4-44--4-44----5-55--5-55----7-77--7-77-- (6X)
A|--2-22--2-22--2-22--2-22----5-55--5-55----7-77--7-77--
E|----##----##----##----##----3-33--3-33----5-55--5-55--
                                ##    ##      ##    ##

Guitar 2
(Funky Talkin Part)

E|-----------------------------------                 
B|--12-1212-12-1212-12-1212-12-1212--                 
G|-----------------------------------                 
D|----------------------------------- (5X) let last  
A|----------------------------------- note ring 5th   
E|----------------------------------- time playing    
                                                                                                     
|--------    |------------------       |------------------
|--0--2--    |--3--2--3--2--0---       |--3/-3/-3/-3/--2--
|--------    |------------------       |---------------*--
|--------    |------------------ (2X)  |------------------
|--------    |------------------       |------------------
|--------    |------------------       |------------------
                                           Crazy Bend


Guitar 1&2
(Verse)

E|--------------------------
B|--------------------------
G|--44-4--------77-7--------
D|--44-4--77-7--77-7--55-5-- (4x)
A|--22-2--77-7--55-5--55-5--
E|--------55-5--------33-3--

Guitar 1&2
End

E|-----
B|-----
G|--4--
D|--4--
A|--2--
E|--*--
Comments