Virgin Steele - Hellfire Woman Chords & Tabs

 

Hellfire Woman Chords & Tabs

Virgin Steele Chords & Tabs

Version: 1 Type: Tab 0 ratings
1 star 2 stars 3 stars 4 stars 5 stars
comments

Hellfire Woman Tab

VIRGIN STEELE IS A DAMN GOOD POWER METAL BAND. THEY MADE THEIR FIRST ALBUM IN 1982 AND
MADE A NEW ONE 2002 BOOK OF BURNING . THIS IS THE SONG FROM IT HELLFIRE WOMAN. VIRGIN
STEELE'S SINGER IS DAVID DEFEIS AND GUITARIST EDWARD PURSINO.




INTRO X2 / riff a

|---------------------------------------------------------------------------|
|---------------------------------------------------------------------------|
|---------------------------------------------------------------------------|
|------7-5---------------7-5---------7~~-----7-5------------14-12-----------|
|-7-7------7-5--5-7--7-7-----7-5-5-7-----7-7-----7-5--5-7---12-10-----------|
|-5-5----------------5-5-----------------5-5--------------------------------|

MAIN RIFF/ riff b [play as long as when main riff stops]

   [part 1]                  [part 2]
|-------------------------|--------------------------------------------------|
|-------------------------|--------------------------------------------------|
|-------------------------|--------------------------------------------------|
|-------------------------|------------------5-7-6-5-------------------------|
|-7-------7-------7-----7-|-7-------7----------------------------------------|
|-5-5-5-5-7-5-5-5-7-5-5-7-|-5-5-5-5-7-5-5-5----------------------------------|
  . . . .   . . .   . .       . . .   . . .

VERSE RIFF / riff c [play as long as when the verse stops]
[ Tab from: http://www.guitartabs.cc/tabs/v/virgin_steele/hellfire_woman_tab.html ]
[part 1]  [part 2 same as part 1 but repeat the whole main riff]
|-----------------------------------------------------------------------------|
|-----------------------------------------------------------------------------|
|-----------------------------------------------------------------------------|
|-----------------------------------------------------------------------------|

------------------------------------------------------------------------------|
|-7-------7-------7-------7-------9-7-----------------------------------------|
|-5-5-5-5-7-5-5-5-7-5-5-5-7-5-5-5-7-5--------------     ----------------------|
                                      repeat part 1 from main riff


CHORUS RIFF / riff d x2

|---------------------------------------------------------------------------|
|---------------------------------------------------------------------------|
|---------------------------------------------------------------------------|
|-------------5-------------------------------------------------------------|
|-7---7---7---3-5-----------------------------------------------------------|
|-5---5---5-----3-----------------------------------------------------------|


BEFORE SOLO RIFF / riff e

|---------------------------------------------------------------------------|
|---------------------------------------------------------------------------|
|---------------------------------------------------------------------------|
|---------5----------------3p0----------------------------------------------|
|-7--7-7--3-3--------3h4h5--------------------------------------------------|
|-5--5-5----5--3h4h5--------------------------------------------------------|

SOLO IS VERY EASY TO FIND  I PROMISE THAT I WILL SUBMIT IT AS SOON AS POSSIBLE I KNOW 
TO PLAY IT..... REST OF THE SONG IS A PIECE OF CACKE!


THIS SONG IS DARK AND HEAVY AND VERY GOOD.. bUY THE ALBUM BOOK OF BURNING!
Comments