Virgin Ears - Sasha Song Chords & Tabs

 

Sasha Song Chords & Tabs

Virgin Ears Chords & Tabs

Version: 1 Type: Tab 0 ratings
1 star 2 stars 3 stars 4 stars 5 stars
comments

Sasha Song Tab

the virgin ears..................................................
 		sasha song
 e------------------------------------------------------------------------------------------- 
 b------------------------------------------------------------------------------------------- 
 g-------9---------------------------------------------------------------------------------- 
 d-------9-----9-----6----7----6---7----6----7-------4---------------------------------
 a-------7-----9-----6----7----6---7----6----7-------4--------------------------------- 
 e--------------7-----4----5----4---5----4----5-------2---------------------------------

e---------------------------------------------------------------------------------------------
 b--------------------------------------------------------------------------------------------
 g--------------------------------------------------------------------------------------------
 d-----4-----------7-------------------------------------------------------------------------
 a-----4-----------7-------------------------------------------------------------------------
 e-----2-----------5-------------------------------------------------------------------------
[ Tab from: http://www.guitartabs.cc/tabs/v/virgin_ears/sasha_song_tab.html ]
e--------------------------------------------------------------------------------------------------------
 b-------------------------------------------------------------------------------------------------------
 g-------------------------------------------------------------------------------------------------------
 d--------------------------------------------------4----------7---------------------------------------
 a-------------0-1-2-0-1-2--0-1-2-0-1-2-----4----------7---------------------------------------
 e--------------------------------------------------2----------5---------------------------------------

e-------0-1-2-0-1-2--0-1-2-0-1-2-----------------------------------------------------------------
 b-------------------------------------------------------------------------------------------------------
 g-------------------------------------------------------------------------------------------------------
 d-------------------------------------------------------------------------------------------------------
 a-------------------------------------------------------------------------------------------------------
 e-------------------------------------------------------------------------------------------------------

end riff
 e-------------------------12-13-14-12-13-14-12-13-14-12-13-14-------------2------------
 b-------------------------------------------------------------------------------------------------------
 g-------------------------------------------------------------------------------------------------------
 d-------------------------------------------------------------------------------------------------------
 a-------------------------------------------------------------------------------------------------------
 e-------------------------------------------------------------------------------------------------------
Comments