Violent Work Of Art - Different Problem Same Solution Chords & Tabs

 

Different Problem Same Solution Chords & Tabs

Violent Work Of Art Chords & Tabs

Version: 1 Type: Tab 0 ratings
1 star 2 stars 3 stars 4 stars 5 stars
comments

Different Problem Same Solution Tab

   
Different Problem, Same solution
By Violent work of Art

\----------------------------------------\
\----------------------------------------\
\----------------------------------------\
\----------------------------------------\    < Intro Riff, and when 
\----7--7--6--7--7--6--7--7--6--7--79~~-\      hes singing
\----5--5--4--5--5--4--5--5--4--5--57~~-\  "Different problem, same solution!

\----------------------------\
\----------------------------\
\----------------------------\
\----------------------------\     < The Verses, this goes between 
\----7--7----7----7--7-------\                all the words 
\----5--5----5----5--5-------\

\-------------------------------------------------\
\-------------------------------------------------\
\-------------------------------------------------\
\-------------------------------------------------\
\---9--3--5--7-----9-----9---3--5-----7-----9-----\
\---7--1--3--5-----7-----7---1--3-----5-----7-----\
       Mutilating myself     Become someone else    

\-------------------------------------------------\
\-------------------------------------------------\
\-------------------------------------------------\
\-------------------------------------------------\
---9--3---5----7-------97---9--9--8--5--5--------\
---7--1---3----5-------75---7--7--6--3--3--------\
   In darkness I find       My inner strength

[ Tab from: http://www.guitartabs.cc/tabs/v/violent_work_of_art/different_problem_same_solution_tab.html ]
\-------------\          \-----------------------\     
\-------------\          \-----------------------\
\-------------\ 3x...    \-----------------------\
\-------------\  Then >  \-----------------------\
\--7~~--X-X---\          \---7--7--9--9--7--7----\   
\--5~~--X-X---\          \---5--5--7--7--5--5----\

The more I cut, the more I bleed
I am my only enemy
The more I bleed, the more I fail
SELF INFLICTED!!!

Different problem, same solution
Different problem, same solution
Different problem, same solution
Another kind of pain

Salvation lies within the cell
Pain is all I need to fail
A brand new state of misery
Ter-min-a-tion

Mutilating myself
Become someone else
In darkness I find
My inner strength

The greatest cause, the greater pain
I know Ill never be the same
Whatever is my destiny
I dont need mySELFFFF!

Mutilating myself
Become someone else
In darkness I find
My inner strength

I lie with my shame
My pain was sever
I need to regain
My inner strength

This life is useless
I cannot win
This life is useless
I cannot win

Mutilating myself
Become someone else
In darkness I find
My inner strength

I lie with my shame
My pain was sever
I need to regain
My inner strength

TaBbEd BYYYYY.......... Ky the Spy from ~Out of Stock~
A.K.A. Kyle Francis Mara
Comments?... I'm at Kfmara12@hotmail.com
Watch out, I'm not in good agreement

Violent work of art can be found...
http://www.iuma.com/IUMA/Bands/Violent_work_of_art/lyrics-0.html
Comments