Violent Femmes - Ugly Chords & Tabs

 

Ugly Chords & Tabs

Violent Femmes Chords & Tabs

Version: 1 Type: Bass Tab 0 ratings
1 star 2 stars 3 stars 4 stars 5 stars
comments

Ugly Bass Tab

Ugly by the Violent Femmes
bass tab as transcribed by Megan
 
verse
G----------------------------
D----------------------------
A-1-1-1-1-0---------------
E---------------3-3-3-3-0-
 
chorus
G----------------2------
D------2---0-4---4-0-
A-0-4---4-------------
E-----------------------
 
I'm doing this from memory right now but I don't think it's too far off.
Hope it does someone some good....


[ Tab from: http://www.guitartabs.cc/tabs/v/violent_femmes/ugly_btab.html ]
Comments