Violent Femmes - Please Dont Go Chords & Tabs

 

Please Dont Go Chords & Tabs

Violent Femmes Chords & Tabs

Version: 4 Type: Bass Tab 0 ratings
1 star 2 stars 3 stars 4 stars 5 stars
comments

Please Dont Go Bass Tab

   
-------------------------------------------------------------------------------
			     Please Do Not Go - Violent Femmes
-------------------------------------------------------------------------------

Tabbed By : fizbitbass	
e-mail: fizbit4002@msn.com

Tuning: E A D G

Intro

G|-------------- |
D|--2h3-3-2-0--- |
A|-------------- |
E|------------3- |

Verse 1 

G|----------0-0---------------------------- |
D|--------0-----3-2-0---------0-3p2--------*|	
A|----2h3-------------3-2-3-4-------3-5-3-0*|
E|--3-------------------------------------- |

Verse 1b

G|----------0-0--------------------------------- |
D|--------0-----3-2-0---------------------------*|	
A|----2h3-------------3-2-3-4-5---5-5-5-5-5-5---*|
E|--3------------------------------------------- |


Verse 2

G|----------0-0----------------------- |
D|--------0-----3-2-0---------0------- |
A|----2h3-------------3-2-3-4---3-2-0- |
E|--3--------------------------------- |

Chorus

G|-0----------------------- |
D|--3-2-0---------0-------- |
A|--------3-2-3-4---3-2-0-- |
E|------------------------- |

Bridge 1  

G|---------------------------- |
D|------------------0-0-2-0---*|	
A|--3-2-0-------2-----------2-*|
E|--------0---3---3----------- |

Bridge 2

G|------------------------------- |
D|------------------------------- |
A|--3-2-0----5---3/5---3/5-3-2-0- |
E|--------0---------------------- |

Solo:
[ Tab from: http://www.guitartabs.cc/tabs/v/violent_femmes/please_dont_go_btab_ver_4.html ]
G|-------------------3h4--0--2p0------------------------------------------ |
D|------------0-5-----------------2---------0--0h2p0--0--0h2p0--2p0------- |
A|-----2h3-----------------------------3------------------------------3--- |
E|--3-3------------------------------------------------------------------- |

G|-----------------3h4--0--2p0-------------0-----0------0---2h3p2--0------ |
D|----------0-5----------------2--------2--------------------------------- |
A|------2h3-------------------------3--------3-----3---------------------- |
E|-3-3-------------------------------------------------------------------- |

G|----------0---------0---------0-------------------------------2/ 3-0---- |
D|-0h2/ 5-----3h5-------3h5-------3h5-2--0----------0--0h2p0--0-------0--- |
A|----------------------------------------------3------------------------- |
E|------------------------------------------------------------------------ |

G|----------0---------0---------0--------------0-------------------------- |
D|-0h2/ 5------5/ 7------7/ 9-----7/ 9--10-------------2p0---------000000- |
A|------------------------------------------------3---------3/ 2-0-------- |
E|------------------------------------------------------------------------ |


Intro x1

Verse 1 x6

Verse 2 x1

Chorus x1

Verse 1b x1 

Bridge 1 x3

bridge 2 x1

Verse 1 x4

verse 2 x1

chorus x3

solo

bridge 1 x3

bridge 2 x1

verse 1 x2

verse 2 x1

verse 1 x1

verse 2 x1

chorus xhowever much time you decide to waste for the fade-out

I have to give props to the guy on another site who's tabs helped me complete the solo. If you have 
any changes to help out with give me an e-mail. Peace out.

update: I submitted some other tabs that weren't right on the solo so here is the revised one
 
| /  slide up
| \  slide down
| h  hammer-on
| p  pull-off
| ~  vibrato
| +  harmonic
| x  Mute note
===============================================================================
Comments