Violent Femmes - Please Dont Go Chords & Tabs

 

Please Dont Go Chords & Tabs

Violent Femmes Chords & Tabs

Version: 2 Type: Bass Tab 0 ratings
1 star 2 stars 3 stars 4 stars 5 stars
comments

Please Dont Go Bass Tab

   
#----------------------------------PLEASE NOTE---------------------------------#
#This file is the author's own work and represents their interpretation of the #
#song. You may only use this file for private study, scholarship, or research. #
#------------------------------------------------------------------------------##
From: MADER STACY L  

Here's the lyrics and btab for the song "PLease Don't Go"
from the Violent Femmes self titled CD. I have worked
out the words and the btab from the CD, so if
there are ny corrections, then please let me know!


Stacy.


PLEASEDONTGO.BTAB

       ***********************************************************
                                
                                LYRICS

Verse I:

Tell you man I'm stuck on this lovely girl
Of course to me she mean all the world
But then she like another guy
I fall down dead, se never see the tears I cry

Chorus:

Please Please Please Do not go.... (X3)

Verse II:

How long can the days go on
When my love is so strong
And I know I cannot tell a lie
I wanna see him go bye (X 7 more bye's)

Verse III:

Now I wonder, I wonder what she would say
If I told her, If I told her that I felt this way
You know it might make her turn, might make her turn, might make her turn
either way
So all I can do is patiently pray, pray pray pray pray..

Chorus:

Bass Lead:

Verse IV:

Tell you man I'm stuck on this lovely girl
You know I could travel, I could travel over the whole world
And you know what she does, she turn around, she turn around she like another guy
Well what can I do I bomber out there
She never seen the tears I cried

Chorus, Then fade.


        **********************************************************

                                 TAB

    Intro & Verses

G:---------------------------------------------------------------------------|
D:---------5\5--3--2--x----------x----------7-----7----------------5\5---3---|
A:---3--5---------------3-----3----5--7--5-----5-----x------3---5------------|
E:3------------------------3----------------------------3--------------------|

                                         CHORUS
G:---------------------------------------------------------------------------|
D:2---x--------------x----------------------------5---3---2---x--------------|
A:-------3-------3-------5---3---2---x------------------3-----------------3\5|
E:-----------3--------------------------------------------------------3------|
[ Tab from: http://www.guitartabs.cc/tabs/v/violent_femmes/please_dont_go_btab_ver_2.html ]
                                                             How Long
G:---------------------------------------------------------------------------|
D:-----------x-----------------5\5---3---2---x-------------------------------|
A:---3---2-------------3---5---------------------5-------5-------3---2---x---|
E:---------------3\3---------------------------------5-----------------------|

                                        I wanna See
G:---------------------------------------------------------------------------|
D:---------------------------------------------------------------------------|
A:------------3---5\5---7---5-------------------3---2---x---3/5---3/5---3----|
E:3---3---5---------------------7-------------------------------------------3|

                         Bass Lead                       p
G:----------------------------------------------5----------------------------|
D:------------------------------------------5-------3---5---3----------------|
A:---5---3---2----------------------3---5-----------------------5---3---5---7|
E:---------------5---3--------3\3--------------------------------------------|

                                                           p
G:---------------------------------------------------------5-----------------|
D:-----------------------------------------------------5-------3---5---3-----|
A:---5-------5---7---5-------5-------x---------3---5-----------------------5-|
E:-------7---------------7-------7-------3\3---------------------------------|

                                                                          h
G:--------------------------------------------x---------x-------x-------2/2--|
D:----------------x---5-------5/7---5-------5-----3/5-------3-------2--------|
A:--x/3---5---7-----------7-------------7------------------------------------|
E:---------------------------------------------------------------------------|

                       h
G:-----------------------------7-----------------------x---------x---------x-|
D:-x-------------------------------5---7---5-------5-------5/7-------7/9-----|
A:-----3---5---7---5-------5-------------------7-----------------------------|
E:---------------------7-----------------------------------------------------|

                       
G:-------------x---------------------------|
D:--7/9---10-------x-------x---------------|
A:---------------------3-------5>>>-------5|
E:------------------------------------5----|


                          Definitions:

                          x = open string
                          h = hammer on
                          p = pluck
                          3/5 = slide to 5th fret from 3rd
                          5/5 = play note twice
                          >>> = repeat till next note





Compiled by Stacy Mader:

email: g9426507@wumpus.cc.uow.edu.au
Comments