Violent Femmes - Please Dont Go Chords & Tabs

 

Please Dont Go Chords & Tabs

Violent Femmes Chords & Tabs

Version: 1 Type: Bass Tab 1 rating
1 star 2 stars 3 stars 4 stars 5 stars
comments

Please Dont Go Bass Tab

   
From: whale@leland.Stanford.EDU (Stephen Schmidt)
Newsgroups: rec.music.makers.bass
Subject: Re: REQ: BTAB: Please don't go by Violent Femmes (have checked site

Here's the main riff and the chorus. I don't know the solo note for
note. It involves some half-note slides, I know that much. Mostly
it's variations on the riff.

h = hammer on from the previous note

Main riff:

   e  e  s  s  s  e  s  e  e  e   e  e  e  s  e  s  s  s  s  s  e
G-------------------------------|---------------------------------
D-----------------5--5--4--2--0-|-------------0--3h-0-----0-------
A--------2--3h-5h---------------|-3--2--3--2-----------3-----0--2h
E--3--3-------------------------|---------------------------------


Chorus:
   q  q  q  q   e  e  e  s  e  s  e  e  e
G-------------|---------------------------
D--5--4--2--0-|-------------0--0----------
A-------------|-3--2--3--2--------3--2--0-
E-------------|---------------------------



       ***********************************************************


Here's the btab for the song "Please don't go from the Violent Femmes
self titled CD. Its my first attempt at this so any suggestions welcome.


        **********************************************************

                                 TAB

    Intro & Verses

G:---------------------------------------------------------------------------|
D:---------5\5--3--2--x----------x----------7-----7----------------5\5---3---|
A:---3--5---------------3-----3----5--7--5-----5-----x------3---5------------|
E:3------------------------3----------------------------3--------------------|

                                         CHORUS
G:---------------------------------------------------------------------------|
D:2---x--------------x----------------------------5---3---2---x--------------|
A:-------3-------3-------5---3---2---x------------------3-----------------3\5|
E:-----------3--------------------------------------------------------3------|
[ Tab from: http://www.guitartabs.cc/tabs/v/violent_femmes/please_dont_go_btab.html ]
                                                             How Long
G:---------------------------------------------------------------------------|
D:-----------x-----------------5\5---3---2---x-------------------------------|
A:---3---2-------------3---5---------------------5-------5-------3---2---x---|
E:---------------3\3---------------------------------5-----------------------|

                                        I wanna See
G:---------------------------------------------------------------------------|
D:---------------------------------------------------------------------------|
A:------------3---5\5---7---5-------------------3---2---x---3/5---3/5---3----|
E:3---3---5---------------------7-------------------------------------------3|

                         Bass Lead                       p
G:----------------------------------------------5----------------------------|
D:------------------------------------------5-------3---5---3----------------|
A:---5---3---2----------------------3---5-----------------------5---3---5---7|
E:---------------5---3--------3\3--------------------------------------------|

                                                           p
G:---------------------------------------------------------5-----------------|
D:-----------------------------------------------------5-------3---5---3-----|
A:---5-------5---7---5-------5-------x---------3---5-----------------------5-|
E:-------7---------------7-------7-------3\3---------------------------------|

                                                                          h
G:--------------------------------------------x---------x-------x-------2/2--|
D:----------------x---5-------5/7---5-------5-----3/5-------3-------2--------|
A:--x/3---5---7-----------7-------------7------------------------------------|
E:---------------------------------------------------------------------------|

                       h
G:-----------------------------7-----------------------x---------x---------x-|
D:-x-------------------------------5---7---5-------5-------5/7-------7/9-----|
A:-----3---5---7---5-------5-------------------7-----------------------------|
E:---------------------7-----------------------------------------------------|


G:-------------x---------------------------|
D:--7/9---10-------x-------x---------------|
A:---------------------3-------5>>>-------5|
E:------------------------------------5----|


                          Definitions:

                          x = open string
                          h = hammer on
                          p = pluck
                          3/5 = slide to 5th fret from 3rd
                          5/5 = play note twice
                          >>> = repeat till next note

Hope you understand it!


Stacy.


Comments