Violent Femmes - High As A Kite Chords & Tabs

 

High As A Kite Chords & Tabs

Violent Femmes Chords & Tabs

Version: 1 Type: Tab 0 ratings
1 star 2 stars 3 stars 4 stars 5 stars
comments

High As A Kite Tab

violent femmes - high as a kite

by:the bum on the streets


intro:
[ Tab from: http://www.guitartabs.cc/tabs/v/violent_femmes/high_as_a_kite_tab.html ]
e:------------------------------------------  
b:------------------------------------------
g:---4-5-4--4-5-4--4-5-4-0------------------
d:--5------5------5-------------------------
a:------------------------------------------   
E:------------------------------------------


e:------------------------------------------  
b:------------------------------------------
g:---4-5-4--4-5-4--4-5-4-0------------------
d:--5------5------5-------------------------
a:------------------------------------------   
E:------------------------------------------
Comments