Violent Femmes - Gimme The Car Chords & Tabs

 

Gimme The Car Chords & Tabs

Violent Femmes Chords & Tabs

Version: 3 Type: Tab 0 ratings
1 star 2 stars 3 stars 4 stars 5 stars
comments

Gimme The Car Tab

Band:Violent Femmes
Song:Gimme the Car


tabbed by jam9383@yahoo.com


Intro/Verse Riff                                         "girl I wanna"
e-----------------------------------------------------|---------------|
B------2------------------------2---------------------|-----5b~-------|
G------2------------------------2---------------------|---------------|
D------2------------------------2---------------------|---------------|
A--0-------3p2----3p2-------0--------3p2-----3p2------|---------------|
E-----------------------3---------------------------3-|---------------|

End of Intro

e---------------------------------------------------------------------|
B---------------------------------------------------------------------|
G-2b-2b-2b--2/--------------------------------------------------------|
D---------------------------------------------------------------------|
A---------------------------------------------------------------------|
E---------------------------------------------------------------------|

End of Verse
e---------------------------------------------------------------------|
B---------------------------------------------------------------------|
G---------------------------------------------------------------------|
D---------------0--2--5--2----8b~--8b~--8b~--8b~-7~-------------------|
A---0--3--0--3--------------------------------------------------------|
E---------------------------------------------------------------------|

Bridge "Touch her all over the body"
e---------0--0--------------------------------------------------------|
B---------1--1---------1--------1--1----------------------------------|
G---------2--2------2-----2-----------2-------------------------------|
D-----2----------2-----------2----------------------------------------|
A--0------------------------------------------------------------------|
E---------------------------------------------------------------------|

Riff 2 "I could feel myself grow old"
e---------------------------------------------------------------------|
B---------------------------------------------------------------------|
G---------------------------------------------------------------------|
D----2--3--2--3--2--3---2---------------------------------------------|
A--0------------------------------------------------------------------|
E---------------------------------------------------------------------|
[ Tab from: http://www.guitartabs.cc/tabs/v/violent_femmes/gimme_the_car_tab_ver_3.html ]
Bass/guitar solo 1"feel myself grow old"
e---------------------------------------------------------------------|
B---------------------------------------------------------------------|
G---------------------------------------------------------------------|
D-------------------------------------------------------5--7--9b~-----|
A------------5--7~-------------5-7b~-------------5---7----------------|
E---5--8--5----------5---8---5--------5---8---5-----------------------|

Bridge 2 "... Driving,.. Driving"
e---------------------------------------------------------------------|
B---------------------------------------------------------------------|
G---------------------------------------------------------------------|
D---------------------------------------------------------------------|
A-0-0-0-2-0-3-0-2-0---------------------------------------------------|
E---------------------------------------------------------------------|

Break  "tonight ,Ahhh Ahh"
e---------------------------------------------------------------------|
B---------------------------------------------------------------------|
G---------------------------------------------------------------------|
D---------------------------------------------------------------------|
A--------2-2-3-3-5-5-3---------2-2-3-3-3-5-5-3------------------------|
E---3-3---------------------1-1---------------------------------------|

Solo 2 "he might not make it to a man"
e---------------------------------------------------------------------|
B---5-5-3-1--1-3-----5-3-1------5-5-3-1--1-3----5-3-1-----------------|
G-----------------2---------2-------2\--------2-------2---------------|
D---------------------------------------------------------------------|
A---------------------------------------------------------------------|
E---------------------------------------------------------------------|

Outro before fading
e---------------------------------------------------------------------|
B---------------------------------------------------------------------|
G--9---12--10--9--9--10--7--------------------------------------------|
D---------------------------------------------------------------------|
A---------------------------------------------------------------------|
E---------------------------------------------------------------------|

Order:

Intro
Verse
Bridge
Verse
Riff 2
Solo 1
Verse
Bridge 2
Break
Solo 2
Verse
Bridge 2
Outro

any comments and corrections contact me, please rate
Comments