Violent Femmes - Gimme The Car Chords & Tabs

 

Gimme The Car Chords & Tabs

Violent Femmes Chords & Tabs

Version: 1 Type: Bass Tab

Gimme The Car Bass Tab

   
Gimme The Car
Bass Tab
Key of Am (A B C D E F G# A)

All this is rough but ti sounds fairly close if you get the timing right. I haven't 
tabbed out the solos because they'd take forever but they're in Am and there's a lot of F 
and E being played.

Intro
E 5-----------5-3   E 5-7-8--------8---|
A -7-5-3-3-3---  x3 A -------5-7-5---5-|
D -7-5----------    D -----------------|
G ---------------   G -----------------|


Verse
E 5-5-----5-3-5--|
A-----3-3--------|
D----------------|
G----------------|
[ Tab from: http://www.guitartabs.cc/tabs/v/violent_femmes/gimme_the_car_btab.html ]
Bass break
E---------------------------------------------------------------|
A 10-12-10-12-14------------------------------------------------|
D--------------------12-14-16----16-----------------------------|
G-------------------------------14--14-16-16-16-16-14-----------|

‘I’m gonna touch her…’
E -5---------------|
A –-7---3----------|
D ---7---5---------|        repeat
G ---------5-------|

“And she can touch me…”
E 5----
A 7-3--
D 7-5--			repeat
G --5--

“Time goes by, I can feel myself growing old”
E---------------------------------------------------------------|
A--------5-7----------------------------------------------------|
D-5--5-5----5-5—5-5-4-3-2---------------------------------- D-7-|
G-------------------------------9-10-9-10-9-10-9-10-9------ G-8-|    to finish
Solo in Am.

“I ain’t had much to live for”

A 0-2-3-2-00-2-3-2 repeat, then solo in Am.

Hope that helps!