Violent Femmes - Blister In The Sun Chords & Tabs

 

Blister In The Sun Chords & Tabs

Violent Femmes Chords & Tabs

Version: 9 Type: Tab 0 ratings
1 star 2 stars 3 stars 4 stars 5 stars
comments

Blister In The Sun Tab

   
  every one else was way off so i decided to listen to it and figure it out,so i did
this is the real version and please give me a good rating  
                                                          F
   intro e)-------------------------------  (optional)  ------
         b)-------------------------------              ------
         g)-------------------------------              xx--xx
         d)-------------------------------              xx--xx
         a)---2p0-3-2---2-2-3-2---2p0-3-2-              xx--xx
         E)--3--------3---------3---------3  (drum part)xx--xx
[ Tab from: http://www.guitartabs.cc/tabs/v/violent_femmes/blister_in_the_sun_tab_ver_9.html ]
            G      C       Em   
            
         e)-3------0-------0---
         b)-0------1-------0--- 
         g)-0------0-------0---
         d)-0------2-------2---
         a)-2------3-------2---
         E)-3--------------0---
          
        
       I dont wanna type out the lyics but the order is:

       G G C C G Em C Em G Em C C Em G         (F)

  this is my 2nd tabbing and im happy about it i listened to this and figured it out any
questions gorbeze@aol.com             AND PLEASE GIVE ME A RATTING!!!!!
Comments