Violent Femmes - Blister In The Sun Chords & Tabs

 

Blister In The Sun Chords & Tabs

Violent Femmes Chords & Tabs

Version: 4 Type: Tab 0 ratings
1 star 2 stars 3 stars 4 stars 5 stars
comments

Blister In The Sun Tab

   

Title: blister in the sun
Artist: violent femmes
Album: 
Date: 7-24
e  --------------------------------------------------------------------------------------------------------------
B  --------------------------------------------------------------------------------------------------------------
G  --------------------------------------------------------------------------------------------------------------
D  --------------------------------------------------------------------------------------------------------------
A  -------2------------3-----2------------2------------3-----2------------2------------3-----2-------------------
E  3------------3-------------------3------------3-------------------3------------3-------------------3----------
[ Tab from: http://www.guitartabs.cc/tabs/v/violent_femmes/blister_in_the_sun_tab_ver_4.html ]
e  --------------------------------------------------------------------------------------------------------------
B  --------------------------------------------------------------------------------------------------------------
G  --------------------------------------------------------------------------------------------------------------
D  --------------------------------------------------------------------------------------------------------------
A  -------2------------3-----2------------2------------3-----2------------2------------3-----2-------------------
E  3------------3-------------------3------------3-------------------3------------3-------------------3----------

                             then go from G to C


                       chorus-   Em to C,   Em to C and D


Comments