Violent Femmes - Blister In The Sun Chords & Tabs

 

Blister In The Sun Chords & Tabs

Violent Femmes Chords & Tabs

Version: 2 Type: Tab 1 rating
1 star 2 stars 3 stars 4 stars 5 stars
comments

Blister In The Sun Tab

   
                                                          varma
this is just a intro/bass rift for the song
----------------------------------------------------------------------
----------------------------------------------------------------------
----------------------------------------------------------------------
----------------------------------------------------------------------
-----2----3--2------2-------3--2-------2-----3--2---------------------
--3-----3--------3------3----------3------3--------3------------------
[ Tab from: http://www.guitartabs.cc/tabs/v/violent_femmes/blister_in_the_sun_tab_ver_2.html ]
maiin guitar riff
----------------------------------------------------------------------
---3---3---3--3--3---3-3--3--3--3---3--3---3---3-3-3--3---------------
---0---4---0--5--4---0-4--0--5--4---0--4---0---5-0-4--0---------------
----------------------------------------------------------------------
----------------------------------------------------------------------
----------------------------------------------------------------------


chorus- E  C  E  C-D


for a few riffs he does this                                 harmonic   
---3---3---3--3--3---3-3--3--3--3---3--3---3---3-3-3--3------/--------
---3---3---3--3--3---3-3--3--3--3---3--3---3---3-3-3--3------/--------
---0---4---0--5--4---0-4--0--5--4---0--4---0---5-0-4--0------/--12----
-------------------------------------------------------------/--12----
-------------------------------------------------------------/--------
-------------------------------------------------------------/--------
Comments