Violent Femmes - Blister In The Sun Chords & Tabs

 

Blister In The Sun Chords & Tabs

Violent Femmes Chords & Tabs

Version: 2 Type: Bass Tab 0 ratings
1 star 2 stars 3 stars 4 stars 5 stars
comments

Blister In The Sun Bass Tab

Blister In The Sun
By Violent Femmes
Tabbed by Philippe Straforelli
The last tab was pretty much right but it was missing that awesome 1 bar solo after the second chorus
you know the song, you can figure out how each riff follow each other.

Verse riff:
G)----------------------------------------------------------------------
D)-----------------------------------------------------------------------
A)-----2-----3----2-------2-------3----2-------2-----3h2-------
E)-3------3-----------3-------3-----------3-------3--------5h3-
[ Tab from: http://www.guitartabs.cc/tabs/v/violent_femmes/blister_in_the_sun_btab_ver_2.html ]
Chorus riff:
G)--------------------------------------------------------------------------------
D)-----0h2----------0h2h0-----------------------------------------------------
A)----------------------------0h2--3----2-----------3---3--2--2-------------
E)-0------------0--------------------------5----3-----------------5----3----

G)--------------------------------------------------------------------------------------------
D)----0h2h0--------0h2h0------------------------------3h4----3h4----3------------------------- Play
A)----------------------------0h2--3---2---3---4---5--------5----------5----5h3\2------------- verse riff
E)-0-----------3h0------------------------------------------------------------------5h0--0--0-

Solo riff:
G)-------------------------
D)---5h3-----3\2-----------
A)--------5-------3h0------
E)-------------------------
Comments