Violent Femmes - American Music Chords & Tabs

 

American Music Chords & Tabs

Violent Femmes Chords & Tabs

Version: 2 Type: Bass Tab 0 ratings
1 star 2 stars 3 stars 4 stars 5 stars
comments

American Music Bass Tab

Joe Yarmac, Lebanon CT
	Hi there this is my first tab so bear with me!
this is off VF's record why do birds sing. AMERICAN MUSIC
[ Tab from: http://www.guitartabs.cc/tabs/v/violent_femmes/american_music_btab_ver_2.html ]
G------------------------------------------------------
D--2-------------0~22,22--333-2-0~2------
A------3~333--------------------------------------
E-------------------------------------------------------

G-----------------------------------------------------
D-------------2-0-2---------------------------------
A--3~333---------3------------------------------
E-------------------------4-3------------------------

there it is. I know it's not all of it but I can't seem to get the rest.
If you can do the rest I'd love to see it!
Comments