Violent Femmes - 36-24-36 Chords & Tabs

 

36-24-36 Chords & Tabs

Violent Femmes Chords & Tabs

Version: 3 Type: Tab 0 ratings
1 star 2 stars 3 stars 4 stars 5 stars
comments

36-24-36 Tab

   
#----------------------------------PLEASE NOTE---------------------------------#
#This file is the author's own work and represents their interpretation of the #
#song. You may only use this file for private study, scholarship, or research. #
#------------------------------------------------------------------------------##
Date: Wed, 3 Jan 1996 20:17:01 -0500
From: Bryson Meunier 
Subject: TAB:"36-24-36" by "violent femmes"

        No one else bothered to post this so I took the liberty of figuring
it out myself. It may not be exactly right, but it sounds like it is.
Corrections, comments and questions are welcome at meunier.1@osu.edu
Beyond that, my only advice is to play it fast with as much attitude as you
can muster.

                                "36-24-36" by the Violent Femmes
written by Gordon Gano
Transcribed by Bryson Meunier
>From "Add It Up"
guitar solos and lyrics included(I'm including the lyrics because all I
really have is the guitar solos and solos alone do not a tab file make).

Thirty-six...Twenty-Four...Thirty-Six!

guitar solo 1:
 E-----------------------------------------------------------
 B-----------------------------------------------------------
 G------7b7-7r^h5---5----7--5--7h5---5-7b^h5-5--7--5--7--7b-----
 D----------------7----------------7----------------------------
 A-----------------------------------------------------------
 E-----------------------------------------------------------
 
(You'll have to figure out the timing on your own but when played at the
same speed, with the same feel, this arrangement sounds very similar to the cd).
[ Tab from: http://www.guitartabs.cc/tabs/v/violent_femmes/36_24_36_tab_ver_3.html ]
Guitar solo 2:
 E---------------------------------------------5----------------------|
 B--10b-------7h5---5-5------------------------5------------11--10--9-|
 G----------------7-----7b^h5-----5--7--5--7b--5--------/13-----------|
 D----------------------------7--------------------0------------------|
 A--------------------------------------------------------------------|
 E--------------------------------------------------------------------|

 E----------------------------------------------------|  
 B-7-----------------------------------2\-------------|
 G-----10--9--8--7--6\-----------------2\-------------|
 D----------------------8--7-6-5-4-3---2\-------------|
 A-------------------------------------0--------------|
 E---------------------------------------------0------|
 
(Again, you're on your own as far as timing is concerned. Also again, I know
this isn't exact but it definitely sounds similar when played correctly.
Don't follow the numerical indicators in the last part of this solo
verbatim. Just use them as a guideline and walk up the neck to a tune that
suits you).

36-24-36  I want lots of pretty chicks
36-24-36  I want lots of pretty chicks
36-24-36  I want lots of pretty chicks 
36-24-36  I want lots of!


symbols used in transcription:
b=bend
r=release
h=hammer-on
/=slide 

This is my first post so I really would appreciate any input. Send it to
meunier.1@osu.edu  Thanks and have fun with the post.

*******************************************************************************************************

*******************************************************************************************************

Comments