Violent Delight - Punksong Chords & Tabs

 

Punksong Chords & Tabs

Violent Delight Chords & Tabs

Version: 1 Type: Tab 0 ratings
1 star 2 stars 3 stars 4 stars 5 stars
comments

Punksong Tab

Song: Punksong
Artist: Violent Delight
Album: Hands Up! If Youve Got VD/VD Sampler Tape

the strumming is easy to pick up so just listen to it til you think its good

Starts of with just bass in the intro

/=slide
Verse-

G-|------------------------
D-|------------------------
A-|------------------------
E-|--2-2/4-4-4/9-9-9/4-----

Then guitar kicks in

[ Tab from: http://www.guitartabs.cc/tabs/v/violent_delight/punksong_tab.html ]
e-|------------------------
B-|------------------------
G-|----------6-6-----------
D-|--4-4-6-6-6-6-6-6-------
A-|--4-4-6-6-4-4-6-6-------
E-|--2-2-4-4-----4-4-------

Then the chorus is-

G-|------------------------
D-|------------------------
A-|------------------------
E-|--2-4-6-11-9-7-4-6------

e-|------------------------
B-|------------------------
G-|--------8-6-4-----------
D-|--4-6-8-8-6-4-6-8-------
A-|--4-6-8-6-4-2-6-8-------
E-|--2-4-6-------4-6-------

Again the strumming is easy so just play it til you like it

And through the Bill and Ted/Townie song rip its just the same as the verse but 
single strums upwards
Comments