Vintersorg - Rundans Chords & Tabs

 

Rundans Chords & Tabs

Vintersorg Chords & Tabs

Version: 1 Type: Tab 0 ratings
1 star 2 stars 3 stars 4 stars 5 stars
comments

Rundans Tab

			"Rundans" by Vintersorg
			From the album "Till Fjälls"
			Transcribed solely by Knut Farstad
			Comments, etc: reffie-x@online.no

	Standard E Tuning

	; = Arpeggiate

----------------------------------------|
----------------------------------3--5--|
------0-----------0-----0------5--4--5--|
----7-----7-----4-----5------2----------|
--5-----------2-----3------0------------|
----------------------------------------|
 Intro [Acoustic Guitar]             x4                                       
[ Tab from: http://www.guitartabs.cc/tabs/v/vintersorg/rundans_tab.html ]
------------------------------------------------------------------------------
------------------------------------------------------------------------------
--------------------------------------------2---5-4---2-----------------------
---7-----3-----2--7----3---5--7-----3----5--2---5-4---2-----------------------
---7-----3-----2--7----3---5--7-----3----5--0---3-2---0-----------------------
---5-----1-----0--5----1---3--5-----1----3------------------------------------
 Verse [accompanied by a barely audible acoustic guitar]     x4               

---------------------------------------|--------------------------------------
----------------------------------3-5--|---------------------------------3--5-
-------0-----------0-----0-----5--4-5--|------0-----------0-----0-----5--4--5-
-----7-----7-----4-----5-----2---------|----7-----7-----4-----5-----2-------2-
---5-----------2-----3-----0-----------|--5-----------2-----3-----0-----------
---------------------------------------|--------------------------------------
                                                                            ;
Comments