Vinnie Moore - Morning Star Chords & Tabs

 

Morning Star Chords & Tabs

Vinnie Moore Chords & Tabs

Version: 1 Type: Tab 0 ratings
1 star 2 stars 3 stars 4 stars 5 stars
comments

Morning Star Tab

this is a beautiful in time odyssey album.the melody is great!The solo is
pretty weird first with those string skips and stuff.this is the first track
of the album.
hope you enjoy this its a nice song. there might be some mistakes in this and
if you know the mistakes send your own tabs

tabbed by : puia hmar
e-mail add : puia_hmar_88@yahoo.co.in

  tuning: standard 

                       MORNING STAR by Vinnie Moore


E----------------------13--12--10---------------------------------
B------------------10--------------13--12--10---------------------
G---14p10------10------------------------------12--10--9----------
D----------12---------------------------------------------12--10--
A-----------------------------------------------------------------
E-----------------------------------------------------------------


E--------------------------------------------------------------
B--------------------12--10------------------------------------
G----------------------------12--10--9-------------------------
D---12p9------9--12---------------------12--10--9--------------
A---------10---------------------------------------12--10--9---
E--------------------------------------------------------------


E----------------------12--10---------------------------------------
B------------------------------13--12--10---------------------------
G--12p9--------9--12-----------------------12--10--9------------12~~
D---------10-----------------------------------------12--10--9------
A-------------------------------------------------------------------
E-------------------------------------------------------------------


E----------------|--------1--5--1--0----------------------------
B----------------|-----3-------------3--1-----------------------
G---10p9--10~~~--|--2----------------------4--------------------
D----------------|----------------------------5------------6/9--
A----------------|-------------------------------5--2-----------
E----------------|-------------------------------------3--------


E-----------------------|--13--12--10-------------------------------
B------9--12--10--9-----|--------------13--12--10-------------------
G---9----------------9--|--------------------------12--10--9--------
D-----------------------|-------------------------------------12----
A-----------------------|-------------------------------------------
E-----------------------|-------------------------------------------

[ Tab from: http://www.guitartabs.cc/tabs/v/vinnie_moore/morning_star_tab.html ]
E--------------------------------------------------|----------------
B--------------------------------------------------|----------------
G----------10--9--7--------------------------------|--12--14--------
D---10--9------------10--9--7----------------------|----------14----
A------------------------------10--8--7------------|----------------
E--------------------------------------------------|----------------


E----------------------------------------------|--------------------
B---------------13-------12--------------------|--------------------
G---------------------------12--14-------------|--------------------
D---/14~~~--14------14--------------14\12--10--|--12--14--10~~~--12-
A-------------------------------------------------------------------
E-------------------------------------------------------------------


E-------------------------------------------------------------------
B-------------------------------------------13------12--------------
G------------------|--12--14----------------------------12--14------
D-------14--14~~~--|----------12/14~~~--14------14--------------14--
A---12--------------------------------------------------------------
E-------------------------------------------------------------------


E------------|---------------------12--10---------------------------
B------------|--13p10------10--13----------13--15p12------12--15----
G------------|---------10-----------------------------12------------
D---\12--10--|------------------------------------------------------
A------------|------------------------------------------------------
E------------|------------------------------------------------------


E---13--12-------------------------15--13-------------|-------------
B-----------15--17p13------13--17----------17--15~~~--|--12h13p12---
G----------------------14-----------------------------|-------------
D-----------------------------------------------------|-------------
A-----------------------------------------------------|-------------
E-----------------------------------------------------|-------------


E------------------------------15--19p15----------------------------
B---------10--13p10--------15-------------15------17----------------
G---9/10--------------/16---------------------16------17------------
D---------------------------------------------------------17--14h17-
A-------------------------------------------------------------------
E-------------------------------------------------------------------
Comments