Vinnie Moore - April Sky Chords & Tabs

 

April Sky Chords & Tabs

Vinnie Moore Chords & Tabs

Version: 1 Type: Tab 0 ratings
1 star 2 stars 3 stars 4 stars 5 stars
comments

April Sky Tab

   
tabbed by:puiahmar
e-mail add:puia_hmar_88

writen by:J.S BACH

played on guitar by vinnie moore in the album time odyssey.
this is the solo part.

tuning:e:a:d:g:b:e(standard)


guitar solo
                                             pm------------------|

---5---------------------------------------------------------------------|
-6---5-6---5-------------------------------------------------------------|
---------7---5-7---------2----------------------------------3-5-7--------|
-----------------7s5p3-5---3h5p2s3----5---------------3-5-7--------------|
----------------------------------------5--(5)--3-5-7--------------------|
-------------------------------------------------------------------------|

-------------------------------------------------------------------------|
-6p5h6-8p6h8s10p--8p6s5h68p-6s8------------------------------------------|
---------------------------------5-5-(5)--7p5--(5)-----------------------|
---------------------------------------------------/8-7-8----------------|
-------------------------------------------------------------------------|
-------------------------------------------------------------------------|

--------------------------8---12---13---12---10---8----------------------|
-----------------------10---8----8----8----8----8---8-10----10-----------|
---------------------9-----------------------------------12----10-12-----|
-10--8-7----------10-----------------------------------------------------|
---------10-8-7s8--------------------------------------------------------|

-------------------------------------------------10----13----15----------|
-------------------------10----13----12-------10----10----10----10-------|
-9-10----9-------9-10-12----12----12----12-------------------------------|
------12---10-12---------------------------------------------------------|
-------------------------------------------------------------------------|
-------------------------------------------------------------------------|
[ Tab from: http://www.guitartabs.cc/tabs/v/vinnie_moore/april_sky_tab.html ]
--15b17--(15)r(15)-15--15s17-15----------13h15h17----------15h17---------|
--------------------------------13h15h17----------15h17h18---------------|
-------------------------------------------------------------------------|
-------------------------------------------------------------------------|
-------------------------------------------------------------------------|
-------------------------------------------------------------------------|

--18-17-15---20-17----------17-------------------------------------------|
-------------------17-20b22r---18-20-------------------------------------|
-------------------------------------19----------------------------------|
-------------------------------------------------------------------------|
-------------------------------------------------------------------------|
-------------------------------------------------------------------------|

--------------------------------------------------------------20----------17---|
-15--18-17-18----18-17-18----18-17-18----18-17-18-15-18-17-18----18-17-18----17|
--------------17----------15----------14---------------------------------------|
-------------------------------------------------------------------------------|
-------------------------------------------------------------------------------|
-------------------------------------------------------------------------------|

-19-----20----22b24---(22)r(22)p19-22-19----------------------------------19-15|
-----------------------------------------20----------------------------17------|
--------------------------------------------19s16-19-16h19p16-------16---------|
--------------------------------------------------------------17---------------|
-----------------------------------------------------------------17------------|
-------------------------------------------------------------------------------|

-------------------------------------------------------------------------------|
-17----------------------------------------------------------------------------|
---16------------------------------14-16-16b17----(16)r------------------------|
-----17-------------------14-15-17---------------------------------------------|
--------19-17-15-14-15-17------------------------------------------------------|
-------------------------------------------------------------------------------|

well thats all! hope u enjoy it
Comments