Vines - Winning Days Chords & Tabs

 

Winning Days Chords & Tabs

Vines Chords & Tabs

Version: 2 Type: Tab 0 ratings
1 star 2 stars 3 stars 4 stars 5 stars
comments

Winning Days Tab

   
THE VINES - WINNING DAYS ALBUM

tabbed by janine
email ; hallucinatemusic@mail.com


i've tried to simplify things as much as possible so you can
grasp the songs as quickly as possible! if you know how the songs
go in terms of structure then figuring out these tabs should be no
problem, so here goes...

(standard tuning)


1.RIDE

C# -- C# -- C# - E-F#   (repeat)

that's the start the middle and the end...

chorus
C#5 - A5  x3       E-F#

ride with me x3   oh oh oh


brigde x2
                             (1st time)
A              G              F#
--3-3-----------5-5-----------2-2----------2-2--------------|
--3-3-----------5-5-----------2-2----------2-2--------------|
--4-4--6-7-6----4-4--4-5-4----3-3--3-4-3---3-3-3-4-3-4------|
--3-3--------7--5-5--------5--4-4--------4-4-4--------------|
--3-3-----------5-5-----------4-4----------4-4--------------|
--5-5-----------3-3-----------2-2----------2-2--------------|


(2nd time)

strum holding F#

solo


----------------------------------------------------|
----------------------------------------------------|
--6^ 6^-6^-6^-6^-6^-6^-6^--9^-9^-9^-9^-9^-9^-9^-9^--|
----------------------------------------------------|
----------------------------------------------------|
----------------------------------------------------|


----------------------------------------------------|
----------------------------------------------------|
--12^-12^-12^-12^-12^-12^-12^-12^---/20-^-----------|
----------------------------------------------------|
----------------------------------------------------|
----------------------------------------------------|

2.ANIMAL MACHINE


main riff     repeat   ('cos i got somethin'...)
---------------------|-----------------------------------|
---------------------|-----------------------------------|
--------------6------|-----------------------------------| back to
----2-------6--------|---------------6---------------6---| main riff
--1---1-/-4----------|-----2-------6-------2-------6-----|
---------------------|---1---1-/-4-------1---1-/-4-------|

chorus

Bb - Ab  x4


solo


-------------------------------------------------------|
------------------------9------------------------------|
-8^--8-8-8-6-8--8-6------9^--8-8-8-6--8-6--------------|
--------------------8---------------------8--8---------|
-----------------------------------------------8-6-----|
---------------------------------------------------9-6-|

--------------------------------------------------------------|
--------------------------------------------------------------|
----------6-8^-6-8-8^-6~--------------------------------------|
--6-6-6-8-----------------9-9-9-9-9-9-9-9-9-9-9-9-9-9-11-9-11-|
--------------------------------------------------------------|
--------------------------------------------------------------|


---14^--14~-|
------------|
------------|  ad lib
------------|
------------|
------------|

exit riff
(...colours of her dream)

----------------------------------------------------------------|
----------------------------------------------------------------|
----------------------------------------------------------------|
----2-1------------------------2-1------------------------------|
--1-----4-1-----4-----4------1-----4-1-----4-----4------4-----4-|
------------2-2---0-0------------------2-2---0-0----2-2---0-0---|


end on Bb

3.TV PRO


A - Dm  (play in nut position with picking melodies in verse)


A - Dm  (power chords for chorus)


bridge

G5 - Ab5   then again to A - Dm

                       (la la la la la la la la la la la la)

brige fill
  ohh ohh     solo
------------|------------------5-------------------5----------|
---8--6-----|-----8-6-5--5-6-5---5-5-6---5---5-6-5---5-5-6-5--|
------------|------------------------------7------------------|
------------|-------------------------------------------------|
------------|-------------------------------------------------|
------------|-------------------------------------------------|


-----------------------------------------|
--------------------------5-5-6-5^-------|
-7-/6--2-2-2-2-2/5--4-4/7----------------|
-----------------------------------------|
-----------------------------------------|
-----------------------------------------|


4.AUTUMN SHADE 2


verse   C - G - Em - A


chorus  C - G - Em


solo over 2nd chorus


-----------------------------------------------------------------------|
----------------------------------------------------10-----------------|
-9-9-9-9-12-11-9-7-----------------------9-9-9-9-12----12^-13-9------9-|
-------------------9---9----/12-9-9-10-9------------------------9^-9^--|
---------------------7---7---------------------------------------------|
-----------------------------------------------------------------------|

5.EVIL TOWN

intro and middle section
--------------------------------------------------------------|
--------------------------------------------------------------|
--------------------------------------------------------------|
--4--16^-16^-16^--2--16^-18^-14^--4--16^-16^-16^--2-----------|
--4---------------2---------------4---------------2-----------|
--2---------------0---------------2---------------0--9--10--9-|


verse  F# - Em  (x3) - G5


3rd verse
                                 G5 (i'm in an evil town)
----------------------------------------------------------|
----------------------------------------------------------|
----------------------------------------------------------|
----------------------------------5-5--5-5--5-5--5-5------|
----------------------------------5-5--5-5--5-5--5-5------|
--2-^---0----2-^---0----2-^---0---3-3--3-3--3-3--3-3------|


end  F# - Em (x2)

6.WINNING DAYS

verse
(melodic picking) F - C - G - F  F - C - G - G  (X2)


  F  (i've been trying...)


chorus
(strum) F - C - Em - E - F - G


solo

-------------------------------------------------------|
-------------------------------------------------------|
--9-7-5--5^-4-5--7-5-4--4^-2-4--7-5-4-4^-2-4-----------|
---------------------------------------------9^-7-5-7--|
-------------------------------------------------------|
-------------------------------------------------------|


--------------------------------------------------------|
--------------------------------------------------------|
--9-7-5--5^-4-5--7-5-4--4^-2-4--7-5-5--4^-5-4-5-2-0-----|
--------------------------------------------------------|
--------------------------------------------------------|
--------------------------------------------------------|


----------------------------------------------------|
----------------------------------------------------|
---7-5-7-5-7-5-7-5---------7-5-7-5-7-5-7-5----------|  (x2)
----------------------------------------------------|
----------------------------------------------------|
-----------------------8\------------------8--7\----|


----------------------------------------------------|
----------------------------------------------------|
--9-7-5--5^-4-5--7-5-4--4^-2-4--7-5-5--4-5-4-5-0----|
----------------------------------------------------|
----------------------------------------------------|
----------------------------------------------------|


2nd chorus  F - C - Em - E - F - Fm


repeat verse and end on C

7.SHE'S GOT SOMETHING TO SAY TO ME

main riff
 E
-0--------------------------------|
-0--------------------------------|
-1--1-2-1---------------1---------|
-2--------2-2-3-2-0-2---2---------|
-2--------------------0-2---------|
-0----------------------0---------|


verse
[ Tab from: http://www.guitartabs.cc/tabs/v/vines/winning_days_tab_ver_2.html ]
E                               (G)
she's got something to say to me
E                         (G)
about me ever coming round
E
she's got something to say to me
B
and don't know hoe to be left out
         A   G   A   G   A  B   A    E
are you tellin' me what you ain't knowin'?

bridge
A - E - A - B


solo


----------------------------------------------------|
--9-10-9--------------------------------------------|
---------9-7-9-9^-7---7-7-9^-7-7-9^-9^-9^-9^-7------|
--------------------9--------------------------9----|
----------------------------------------------------|
----------------------------------------------------|


----------------------------------------------------|
----------------------------------------------------|
--9-10-9---7-9-9^-9^-7-8^8^8^8^8^8^8^8^8^8^--9-8----|
---------9------------------------------------------|
----------------------------------------------------|
----------------------------------------------------|


--------------------------------------|
----5-8-10-8-10^-10^-10^-8-9-5--------|
--8-----------------------------------|
--------------------------------------|
--------------------------------------|
--------------------------------------|


---------------------------------------------------------------|
------------------------------8-10-10-10^-8-10--12--10--9--7^--|
----9-7---7-9-9^-7---7---9-9-----------------------------------|
--9-----9----------9---7---------------------------------------|
---------------------------------------------------------------|
---------------------------------------------------------------|

8.RAINFALL

verse  C - G - D - D


bridge  G    D - C - D - C


little solo

----------------------------------------------------|
--10-12-13-15-17-15-13-12--(x2)--15------14---------|
-------------------------------------15------14-----|
----------------------------------------------------|
----------------------------------------------------|
----------------------------------------------------|


2nd little solo (clean tone)

------------------------------------------------------------------|
------------------------------------------------------------------|
----------------------------7-5-7-9-7-9-11--11-11--9-9--7-7--5-5--|
------------------------------------------------------------------|
--5-5-7-5--------------5-5----------------------------------------|
----------8-7-5-3-3^-5--------------------------------------------|


repeat main riff x4

9.AMNESIA


intro riff
             (x4)              (x2)               (x2)
----------0------|----------0------|----------3-------|---|
------0-2---2----|------0-1---1----|------0-3---3-----|---|
--0-2------------|--0-2------------|--0-2-------------|---|
-----------------|-----------------|------------------|---|
-----------------|-----------------|------------------|---|
-----------------|-----------------|------------------|---|


verse

A                    C     G      etc
i cannot remember my own sanity


repeat intro x 2

solo

-------------------------------|-----------------------------------|
--2^--2~--1^------2^--2~--1^---|--2---2---2---2---2---2---2---2----|
-------------------------------|----2---2---2---2---2---2---2---2--|
-------------------------------|-----------------------------------|
-------------------------------|-----------------------------------|
---------------3-------------3-|-----------------------------------|


---------------------------------------|
--1---1---1---1------------------------|
----2---2---2---2--4---4---4---4-------|  (x2)
---------------------5---5---5---5-----|
---------------------------------------|
---------------------------------------|


10.SUN CHILD


main riff
G
----------------------------------------------------|
--5-5-5-5-5--0-0-0-0-0--3-3-3-3-3--0-0-0-0-0--------|
--4-4-4-4-4--4-4-4-4-4--4-4-4-4-4--4-4-4-4-4--------|
--5-5-5-5-5--5-5-5-5-5--5-5-5-5-5--5-5-5-5-5--------|
----------------------------------------------------|
----------------------------------------------------|


chorus  D  - C - G


little riff

-------------------------------------------|
--12-12-12-12-15-15-12-15-17-17-17-15------|
-------------------------------------------|  (x2)
-------------------------------------------|
-------------------------------------------|
-------------------------------------------|


solo
D                                     D               C         G
----------------------------------------------------------------3--|
--3------10--10-10-10-10-8-7-5-3------3-----3----3----1------1--0--|
--2---/7-------------------------3^---2---2----2---2--0----0----0--|
--0-----------------------------------0-0-----0-------2--2------0--|
------------------------------------------------------3---------2--|
----------------------------------------------------------------3--|


----------------------------------------------------------------------|
----------------------------------------------------------------------|
---------9-7-------7------------------7-------------9-7--------7------|
-------------7-7--9--7^-5-5-7-5-7-5-9---9-7-5-5-5-------7-7--9---7^-5-|
---0-5-2--------------------------------------------------------------|
-3--------------------------------------------------------------------|


--------------------------------------|
--------------------------------------|
--------------7-----------------------|
--5-7-5-7-5-9---9---17-17-17-17-16----|
--------------------------------------|
--------------------------------------|

verse towards end
----------------------------------------------------|
--5-5-5-5-5--0-0-0-0-0--0-0-0-0-0--0-0-0-0-0--------|
--4-4-4-4-4--4-4-4-4-4--3-3-3-3-3--4-4-4-4-4--------|
--5-5-5-5-5--5-5-5-5-5--5-5-5-5-5--5-5-5-5-5--------|
----------------------------------------------------|
----------------------------------------------------|


riff slowing down
                                    G
----------------------------------------------------|
----------------------------------------------------|
----------------------------------------------------|
----------------------------------------------------|
----0-5-2---0-5-7---0-5-2---0-5-7---10-10-10-12-10--|
--3-------3-------3-------3-------------------------|


  G              F#                      F                         C
----------------------------------------------------------------------|
----------------------------------------------------------------------|
-----------------------------------------------------------7----------|
------------------------------------------------------9-10---10-9--10-|
--10-10-10-12-10--9-9-9-10-9--9-9-9-10-9--8-8-8-10-8---------------10-|
--------------------------------------------------------------------8-|

11.F.T.W.


opening riff
--------------------------|
--------------------------|
--------------------------|
--------------5-5-5-4-3---|
--0-3^-0-3^-0-------------|
--------------------------|


verse

A - A - C - F#


fill

-----------------------------------------|
-----------------------------------------|
-----------------------------------------|  (x3)
-----------------------------------------|
-0-0-3^-0-5^-6-5-3-----------------------|
-------------------0-0-3^-0-5^-6-5-3-----|


-------------------------------|
-------------------------------|
-------------------------------|
-------------------------------|
--0-0-3^-0-5^-6-5-3--12\-------|
-------------------------------|

chorus riff
  A          C      F#
------------------------------|
------------------------------|
--2-2-2-2-2--5-5-5------------|  etc
--2-2-2-2-2--5-5-5--4-4-------|
--0-3-0-3-0--3-3-3--4-4-------|
--------------------2-2-------|

and that's all folks! i haven't exactly transcribed timing,
but if you listen to the recordings you can work it out
have fun!
Comments