Vines - Winning Days Chords & Tabs

 

Winning Days Chords & Tabs

Vines Chords & Tabs

Version: 1 Type: Tab 0 ratings
1 star 2 stars 3 stars 4 stars 5 stars
comments

Winning Days Tab

   
Hey, hope you all enjoy my tabs, any corrections just say because
they will be much appreciated. Any feedback also welcome.

thanx a lot
jonny b

1.RIDE

Intro + Verse

e------------------------------------------------------------
b------------------------------------------------------------
g--6-6-x-x--6-6-x-x--6-6-x-x--9--11-11-----------------------
d--6-6-x-x--6-6-x-x--6-6-x-x--9--11-11-----------------------
a--4-4-x-x--4-4-x-x--4-4-x-x--7--9--9------------------------
E------------------------------------------------------------

Chorus

 "Ride  with me  Ride  with me   Ride  with me,  Ahhhhhhhh
e------------------------------------------------------------
b------------------------------------------------------------
g--6-------2------6------2---------6-----2-------------------
d--6-------2------6------2---------6-----2---------2---4-----
a--4-------0------4------0---------4-----0---------2---4-----
E--------------------------------------------------0---2-----

Bridge

                      "I'm not waiting alone..."
e------------------------------------------------------------
b------------------------------------------------------------
g--6--6--6h7-6----4--4--4h5-4----3--3--3h4-3----3--3--3h4-3--
d--7--7-----------5--5-----------4--4-----------4--4---------
a--7--7-----------5--5-----------4--4-----------4--4---------
E--5--5-----------3--3-----------2--2-----------2--2---------

Solo

e---------------------------20---------------------------------
b--------------------------------------------------------------
g---6b7----9b10----12b13---------------------------------------
d--------------------------------------------------------------
a--------------------------------------------------------------
E--------------------------------------------------------------

Order:
Intro
Verse
Chorus
Verse
Chorus
Bridge
Solo
Intro
Chorus
End on C#5



2. Animal Machine

Main Riff

e------------------------------------------------------------
b------------------------------------------------------------
g-----------6------------------------------------------------
d---2-2s6-6--------------------------------------------------
a-1----------------------------------------------------------
E------------------------------------------------------------

"Save your money for the week..."
e------------------------------------------------------------
b------------------------------------------------------------
g------------------------------------------------------------
d--6----4----------------------------------------------------
a--6----4----------------------------------------------------
E--4----2----------------------------------------------------

Chorus
e------------------------------------------------------------
b------------------------------------------------------------
g------------------------------------------------------------
d--8-8--8-8---6----------------------------------------------
a--8-8--8-8---6----------------------------------------------
E--6-6--6-6---4----------------------------------------------

Solo
e------------------------------------------------------------
b-----------------------------10b11--------------------------
g---8b9--b9r8--6--6h8r6--------------8b9r8--6--6h8r6---------
d------------------------8----------------------------8------
a------------------------------------------------------------
E------------------------------------------------------------
Then something around the G#5 and F#5 chords and then to the
chorus and main riff chords



3. TV Pro
Not too sure on this one but i think the verse is as written, A and Dm

Verse
e------5----5-----------------------------------------------
b------5----6-----------------------------------------------
g------6----7-----------------------------------------------
d------7----7-----------------------------------------------
a------7----5-----------------------------------------------
E------5----------------------------------------------------

Chorus
Strum
e------5----5-----------------------------------------------
b------5----6-----------------------------------------------
g------6----7-----------------------------------------------
d------7----7-----------------------------------------------
a------7----5-----------------------------------------------
E------5----------------------------------------------------

bridge
"ooohhhhhhhhhh lalalala.....
e----------------------5------------------------------------
b----------------------6------------------------------------
g----------------6-----7------------------------------------
d--5----6--------7-----7------------------------------------
a--5----6--------7-----5------------------------------------
E--3----4--------5------------------------------------------

Solo
                                         Improvise from here
e---5-------------5---------------5-------------------------
b-----6-5---5-6-5----6--5-----5-6---6-5---------------------
g--------------------------7--------------------------------
d-----------------------------------------------------------
a-----------------------------------------------------------
E-----------------------------------------------------------



4. Autumn Shade 2

Verse
Pick the wollowing chords     End of verse - "...fuckin mad"
e--0--3--0--0------------------------0--3----------------
b--1--3--0--0------------------------1--3----------------
g--0--0--0--2------------------------0--0----------------
d--2--0--2--2------------------------2--0----------------
a--3--2--2--0------------------------3--2----------------
E-----3--0--0---------------------------3----------------
[ Tab from: http://www.guitartabs.cc/tabs/v/vines/winning_days_tab.html ]
Chorus
Strum
e--0----0--3------------------------------------------------
b--0----1--3------------------------------------------------
g--0----0--0------------------------------------------------
d--2----2--0------------------------------------------------
a--2----3--2------------------------------------------------
E--0-------3------------------------------------------------



5. Evil Town

Intro
e-----------------------------------------------------------
b-----------------------------------------------------------
g-----------------------------------------------------------
d--4---16b18----2----16b18r14-------------------------------
a--4------------2-------------------------------------------
E--2------------0-------------------------------------------

Verse
e--2---0----------------------------------------------------
b--2---0----------------------------------------------------
g--3---0----------------------------------------------------
d--4---2----------------------------------------------------
a--4---2----------------------------------------------------
E--2---0----------------------------------------------------

End of Verse
"Evil Evil Town
e-----------------------------------------------------------
b-----------------------------------------------------------
g-----------------------------------------------------------
d---5-------------------------------------------------------
a---5-------------------------------------------------------
E---3-------------------------------------------------------



6. Winning Days - HELP?

I can hear the chords of G, C, D and E being used

7. She's Got Something To Say To Me
(Dont know the solo)

Intro
e--0--------------------------------------------------------
b--0--------------------------------------------------------
g--1---1h2--1-----------------------------------------------
d--2-----------2--2--0--2--0--------------------------------
a--2--------------------------2-----------------------------
E--0--------------------------------------------------------

Verse
                  then end of verse
e--0--------------------------------------------------------
b--0--------------------4-----------------------------------
g--1--------------------4-----------------------------------
d--2--------------------2-----------------------------------
a--2--------------------------------------------------------
E--0--------------------------------------------------------

Chorus
e-----------------------------------------------------------
b-----------------------------------------------------------
g-----------------------------------------------------------
d--7-7--5--7-7--5-5--7-7------------------------------------
a--7-7--5--7-7--5-5--7-7------------------------------------
E--5-5--3--5-5--3-3--5-5------------------------------------




8. Rainfall

Intro - Pick
Verse Strum
e-----0--3--2----------------------------------------------
b-----1--3--3----------------------------------------------
g-----0--0--2----------------------------------------------
d-----2--0--0----------------------------------------------
a-----3--2-------------------------------------------------
E--------3-------------------------------------------------

Bridge
e---2--0--------------------------------------------------
b---3--1--------------------------------------------------
g---2--0--------------------------------------------------
d---0--2--------------------------------------------------
a------3--------------------------------------------------
E---------------------------------------------------------




9. Amnesia
Intro
    x4               x2             x2
e--------0---------------0---------------3---------------
b-----2-----2--------1-----1--------3----3---------------
g--0h2--2---------0h2--2---------0h2--2------------------
d--------------------------------------------------------
a--------------------------------------------------------
E--------------------------------------------------------

Verse
 Hold
e--0--------0----3--------------------------------------
b--2--------1----3--------------------------------------
g--2--------0----0--------------------------------------
d--2--------2----0--------------------------------------
a--0--------3----2--------------------------------------
E----------------3--------------------------------------

Solo - play the intro and then...
e------------------------------------------------------
b------------------------------------------------------
g-------7b9----5---------------------------------------
d---------------------7--------------------------------
a------------------------------------------------------
E------------------------------------------------------




10. Sun Child
Need some help on the rest

Verse
e---3---------------------------------------------------
b---3---------------------------------------------------
g---0---------------------------------------------------
d---0---------------------------------------------------
a---2---------------------------------------------------
E---3---------------------------------------------------

Chorus
   x8           x4           x4
e-----2---------0------------------3--------------------
b-------3---------1------------------3------------------
g-------------------------------------------------------
d---0---------------------------------------------------
a-------------3-----------------------------------------
E--------------------------------3----------------------




11. Fuck The World

Intro
e-------------------------------------------------------
b-------------------------------------------------------
g---2-----5---------------------------------------------
d---2-----5-----4---------------------------------------
a---0-----3-----4---------------------------------------
E---------------2---------------------------------------

Verse
e------------------------------------------------------
b------------------------------------------------------
g--2---------------------------------------------------
d--2---5---4b------------------------------------------
a--0---5---4b------------------------------------------
E------3---2b------------------------------------------

Solo
just mess about around the A


there you go.
take care x

Again any corrections welcome
Comments