Vines - Winning Days Chords & Tabs

 

Winning Days Chords & Tabs

Vines Chords & Tabs

Version: 1 Type: Bass Tab 0 ratings
1 star 2 stars 3 stars 4 stars 5 stars
comments

Winning Days Bass Tab

   
_________________________________________________________________________
-------------------------------------------------------------------------
THE VINES :WINING DAYS ALBUM BASS TABS
BY:PACO VALIANT L...CHECK IT OUT
-------------------------------------------------------------------------
ok here is it ,some songs are only mastered out of mistakes 
thanks to the authors of the original tabs of wining days and ride
the rest of the tabs are made by me(viivva mexicoooooo cabbrooneess)

1.Ride
2.Animal machine
3.T.V. Pro
4.Autumn shade
5.Evil town
6.Wining days 
7.Shes got something to say to me
8.Rain fall
9.Amnesia
10.Sun child
11.F.t.w.

-------------------------------------------------------------------------
Ride.......(droped D)
Intro:
G------------------------------|
D------------------------------|
A-----444444444......----------|
D------------------------------|
     hhoooowwwaaaaaa
Verse:               X3
G-------------------------|------------------|
D----2-4--------2-3-44-2-1|----------2-44-2--|
A44----44-2-4-4----------|--44-44-44--------|
D-------------------------|------------------|
   Thats the star the ..   once again im gona head along
Chorus:   X3
G-----------|-------------|
D--------7--|-------------|  X 2
A-44/7-00---|-------------|
D-----------|-222-4-4-2-0-|
Ride with me.....hoome

Then:
G-----------------|
D---------2-2h4-2-|
A-44-44-44--------|
D-----------------|
  Unleess yooouuuuu!!

Then the verse again and the chorus and then:

Bridge:
G-----------------------------------------|-------------|
D-----------------------------------------|-------------|
A-----------------------------------------|-------------|
D-7-7-797-0-5-5-575-0-4-4-454-0-4-4-454-0-|-444444444...|
  Im not waiting a long life...             im not waiting alooonneee

Solo:       X3
G------------------|----------------|
D------------------|---------2-2h4-2|
A-432-432-432------|-44-44-44-------|
D----5---5---2-4-2-|----------------|

Repeat the parts that follows and end on c#

-------------------------------------------------------------------------
Animal machine..Standard tuning

Intro:
G-----------------|
D-----------------|
A----------7777777|
E-44444444/-------|
So save your mone for...

Then:
G------------------|
D-2-------2-------|
A-1-44-0-11-44-0---|
E------------------|
 
Verse:
G--------------------|--------|
D--2-------2--------|--------|
A-11-44-0-11-44-0----|--44444-|
E--------------------|--------|
 Im loking diwn by .. 
Chorus:
G---------------------|
D---------------------|
A---77----------------|
E-66-4-6-0-4-4444444-|
 Bap bap duap da  shoots ke an animal machiinnee

Solo:
G-------------------------------|
D-2-------2-------2-------2----|  X2
A-1-44-0-11-44-0-11-44-0-11-44-0|
E-------------------------------|

G--------------------------------------13(thirteen)----13-|
D-2-02b3--00-2b3-0-2-------2------9-9-------------9-9---| 
A-1-02--------------1-44-0-11-44-0-8-8------------8-8-----|
E---------------------------------------------------------|



Break:
G----------|
D----------|  repeat
A---------4|
E-6-046-04-|

Then repeat the verse and chorus and:

Outro:
G--------------|  |-----------------------------|
D--------------|X3|-----------------------------|
A-764---------|  |-764-------------------------|
E-6---222-0000-|  |6---222-000-222-000-666666666|
  Colours of her dreams!!

-------------------------------------------------------------------------
T.V. PRO

Verse:
G-22----0-2200-----------------2-0-| and in  |-2-2|
D---2233-2----3322-00223320-232----| the last|----|
A----------------------------------|         |----|
E----------------------------------|         |----|

Chorus:
G---------------------------------|
D---------------------------------|
A-----------------5555555555757575|
E-5555555555757575----------------|
 aahaaahaaa

Chorus continue:
G---------------|----------------------------------|
D---------------|------------------------------5-3-|
A---------------|-------------------5575-575-57----|
E-3-33-333-4-44-|444-5535-535-535553---------------|
  La la lala lalala lalalalalala

The next only repeats the chorus verse and etc etc....
In the en when there are something like a solo follows
this listen carefuly the song an you got it.

This goes fast: (03:02)
G-----------------5------------------------|
D-775-57775-775-67-75----------------------|x2
A----7-----7---7-----7-553-35553-553-35533-|
E-------------------------5-----5---5------|
                (03:16)
G----------5------------------|
D-7-75757-7-75-----------3----|X2
A-------------75-53535-5-53--|
E---------------------------5-|
End 



-------------------------------------------------------------------------
Autumn shade

Finish of the verse: (00:31)
G----------------|
D----------------|
A-3-3-3/10-1099--|
E----------------|
  Fuckin maddd

Chorus:
G--------------------------
D--------------------------
A-7-7-7-7-7-77-3-3-33------
E--------------------3-3-33
 Looking at the autumn shade
G-----------------------------------|
D-----------------------------------|
A-7-7-7-7-7-77-3-3-3/10-10-10h12p10-|
E-----------------------------------|
  you im i and im great

G-------------------------------------
D-------------------------------------
A-7-7-7-1010-7-7-10-3-3-3/10-10-99-7~-
E-------------8-----------------------

Verse:/outro
G--------------|
D--------------|
A-3~2--------0~|
E----3~-0~--3--|

End on C 

-------------------------------------------------------------------------
Evil town  
(im not shure about this one but is very close)

Intro:
G--------------------------------------------------|
D--------------------------------------------------| x2
A--------------------------------------------------|
E-2-22-2-22-2h3p2-0-3-2-0---2-22-2-22-2h3p2-0-3-0-1|

Verse:                              At the end 
G-----------------------------|  |-------------------------|
D-----------------------------|x3|-------------------------|
A-----------------------------|  |------3------------------|
E-2-22-2-22-2h3p2-0-00-0-00-0-|  |-0-3-5-5-3-0-33-33-33-33-|

Repeat the things listen the song to hear the order.


Wining days
tabbed by: sinniecoyote

the bass starts at 0:36

G|-----------------------------------------------------------------------2---------|
D|---------------------------------------5-------5-------5-----------2-2-----------|
A|---------------------------------3-3-3---3-3-3---3-3-3---3-3-2-2-0-------0-------|
E|-1-1-1-1-1-1-1-1-1-1-1-1-1-1-1\--------------------------------------------0-3-0-|

G|-------2-------------------------------------------------------------------------|
D|---2-2-----------2-2-----2-2----2-2-----2-2----3-------3--3-/-5--------/5\--5----|
A|-0-------0-------------2--------------2--------------3-------------5-------------|
E|-----------0-3-0-----------------------------------------------------------------|

(1:01)

G|----------------------------------------------------------------|
D|-3---3-------------------2-----5-----5------2--3----3-2---2-0-2-|
A|---------5---3---3----------------------------------------------|
E|----------------------------------------------------------------|

G|----------------------------------------------------------------|
D|-3---3----------------------------------------------------2-0-2-|
A|---------5---3---3-------0-------2---5---5--------2---7---------|
E|-------------------------------3---3-------3----3---3-----------|

repeat both of it twice

(1:36)


G|-----------------------------------------------------------------|
D|-3---3-3--2---------------2--3--5-----5-5--3--2--3-----2-2--0--2-|
A|-------------5---3---3-3-----------------------------------------|
E|-----------------------------------------------------------------|
[ Tab from: http://www.guitartabs.cc/tabs/v/vines/winning_days_btab.html ]
G|-----------------------------------------------------------------|
D|-3---3-3--2--------------------------------------------2-2-----2-|
A|-------------5---3---3-3--2-------2---5---5--------2-------5-3---|
E|-----------------------------5--3---3-------3----3---3-----------|

G|-------------2-3-5-------------------2---------------------------|
D|-3-3-3-3---3---------2-------2-3-5-5---5---5-5---3-3-3-2-2-2-0-2-|
A|-------------------3---3---3-------------------------------------|
E|-----------------------------------------------------------------|

G|-----------------------------------------------------------------|
D|-3---3-3--2--------------------------------------------2---2-0-2-|
A|-------------5---3---3-3--2-------2---5-5----------2-------------|
E|-----------------------------5--3---3-------3----3---3-----------|

G|---------------------------------|
D|-3---------3--3-2-3-5-3-2--------|
A|-----3--3-----------------5--3---|
E|---------------------------------|

(2:26)		(2:33)
G|--------|--------------------------------------------1-1-1-1-1-1-1-1-|
D|--------|-2--2--2-2--2--2--2-2-2-2-2-3-3-3-3-3-3-3-3-----------------|
A|-0------|------------------------------------------------------------|
E|--------|------------------------------------------------------------|

G|------------2-5---------------------------------------------------|
D|-3----3---3---------2-------2-3-5-5-5-7-5-5-2-0-2-3-3-3-2-2-----2-|
A|----------------3-----3---3---------------------------------5-3---|
E|------------------------------------------------------------------|

G|------------------------------------------------------------------|
D|-3-3-2-3-3-3-2------------------------------------------2-2-----2-|
A|---------------5-3-3-2-3-3-3-2-----2---5---5--------2-------5-3---|
E|-------------------------------5-3---3-------3----3---3-----------|

G|------------2-5---------------------------------------------------|
D|-3----3---3---------2-------2-3-5-----7-5---2-0-2-3-3-3-2-2-----2-|
A|----------------3-----3---3---------------------------------5-3---|
E|------------------------------------------------------------------|

G|------------------------------------------------------------------|
D|-3-3-2-3-3-3-2------------------------------------------2---2-0-2-|
A|---------------5-3-3-2-3-3-3-2-----2---5---5--------2-------------|
E|-------------------------------5-3---3-------3----3---3-----------|

G|------------------------------------|
D|-3---------3---3-2-3-5-3-2----------|
A|-----3--3------------------5---3----|
E|------------------------------------|

Shes got something to say to me

Intro:
G--------------|
D--------------|X2
A---5-5h7-5----|
E-0~-------7-5-|

Then the verse 
Verse:
G---------------------|         |--------------------6----------------|
D-----------------5---| in the  |-999-7-999-7-999-7-9-9---------------|
A-77-5-77-5-77-5-7-7-5| end this|-------------------------------------|
E---------------------|         |----------------------5-35-357535-/0~|
     Shes got something..        And dont know hou to ...telling me what
Repeat the intro
Break:
G---------------------------------          ------------|
D-7775777577757775----------------at the end-9~-7~-6~-4~|
A-----------------7775777577757775 of break ------------|
E---------------------------------          ------------|

Solo:
G------------------------------------------| 
D-------9~7~6~4~-------------------9~7~6~4~|
A-7(x48)---------------7(x16)--------------|
E----------------5(x16)------5(x16)--------|

Repeat the verse and end...

Rain fall

Intro:
G-----------------------------------------------------|
D-2325-------------7-5-4-2-2325---------------------|
A-3----23-55-35-3/5---------3----23-55-35-3/4------002|
E--------------------------------------------33-44----|

Verse:
G----------------------------------------------------------|
D-----2----------------7-5-4-2-----2-----------------------|
A-3~-3-----35-5-35-3/5---------3~-3-----35-5-35-3/5-----002|
E-------3~---------------------------3~-------------3344---|
 We were hiding...

Repeat the intro an the verse and in the end of the verse repeat the intro and
when comes the bridge and says:cant belive this bla bla bla.comes this

(01:25)
G--------------------------------------|
D--------------------------------------|
A-3333333333333333---------------------|
E-----------------33333333333333333-5-5|

(01:35)                                   (02:08)
G-------75----775--------53-------53-|  |--------------|
D-----77---------------55-------55---|  |--------------|
A-3/55----3/55-----1/33-----1/33-----|x4|--------------|
E------------------------------------|  |-6(X16)-5(X16)|

Break: (02:16)
G------------------------------------------------------|
D2325------------------------------------------7755442|
A-3----2355-55h7-5-320-0h3h5-5-5575------5-5575--------|
E---------------------3------------3-3353--------------|

Outro: (02:33)
G----------------------------------|
D----------------------------------|repeat till the end
A-5-55h7532--------5-55h75320-0h3h5|
E----------3-33h510----------3-----|

Amnesia
Verse: (00:24)
G------------------|
D-7~~~-------5-55-5|
A-----3-33-3-------|same in all verses
E------------------|

Chorus (00:57)
G----------------------------------------------|
D-----------------------------3----------------|
A------------------23-3-3-23-3-5-3-------------|x2
E-5-5-45-5-5-5-45-5---------------53-3-23-3-3|

At (02:36) this:
G---------------------------------------------------------------|
D-----------------------------------------------55-55-5-55-55-5-|
A--------------------------------33-33-3-33-33-3----------------|x2
E-55-55-5-55-55-5-55-55-5-55-55-5-------------------------------|

In (03:07) this:
G------------------------------------------4------|
D-------------------------------------------------|till the end
A--4-7-44-----4-7-44------7-10-77-----5-2---22---|
E-5-------554-5------55-8--------88-----------33-|

Sun child (this was a hard one to tab but im not sure)

Intro: (00:11)
G-9-12--12-9-7-|
D--------------|
A--------------|
E--------------|

Verse: (00:14) listen this sounds very cool  
G---47-479-97------47-479-91212121297-|         |912121212119-
D-5-----------97-5--------------------|in the   |-------------
A-------------------------------------|end of   |-------------
E-------------------------------------|vese this|-------------

Chorus:
G-----------------------------------------4--|in the|-----7-4-|
D-----------4h5-4-2----4h5-4-2---5-5-555-5-5-|end of|-5-75----|
A-5-55-55-5-------3-33----------------------|the   |---------|
E--------------------------------------------|chorus|---------|
In the solo play the verse and later the same verse
Repeat the things when you hear it and in the long solo at (02:26)
Play only D and in the end you make this progresion:
G------------------------|
D------------555-555-5542|and play the chorus
A------33-55-------------|
E-33-55------------------|

Outro (04:00)
G-12-12-12-1212h14-12-14-11-1111h12-11-1111h12-11-14-10-1010h12-10-10|
D--------------------------------------------------------------------|
A--------------------------------------------------------------------|
E--------------------------------------------------------------------|

G-16-17-19-17-16-17~~|
D--------------------|
A--------------------|
E--------------------|

Fuck the worllddd!!

Intro:/verse /chorus
G-------------------|
D----------/555-4-33|
A-0-3-0-3-0---------|
E-------------------|

Inthe break of 00:57 you dont play anything until 01:11 and is this:
G-----------------------|
D------h225------------|
A-003050----------------|
E------------0030555h653|
Repeat all the parts in the rigth moment and youre ready to FFUUUCKK THHE WOORLDDDD


Thats all folks thanks if you download this tabs and i hope you enjoit 
I made it cause i dont find much of the tabs of the vines and like green day says :doit
for yourself ok thanks and please forgive my bad english jejeje vivva meexiicooo
y vivaann los  viineesss  fuck the world
Comments