Vines - Ride Chords & Tabs

 

Ride Chords & Tabs

Vines Chords & Tabs

Version: 9 Type: Tab 0 ratings
1 star 2 stars 3 stars 4 stars 5 stars
comments

Ride Tab

   
Artist:The Vines
Song:Ride
Album:Winning Days
Tabbed By:James

Intro (clean)

e-------------------------------
b-------------------------------
g-6-6-x-x-6-6-x-x-6-6-x-9/11-11-
d-6-6-x-x-6-6-x-x-6-6-x-9/11-11- x4
a-4-4-x-x-4-4-x-x-4-4-x-7/-9--9-
E-------------------------------

Verse 1 (clean)

e----------------------------
b----------------------------
g-6-6-x-x-6-6-x-x-6-6-x-9/11-
d-6-6-x-x-6-6-x-x-6-6-x-9/11-  x4
a-4-4-x-x-4-4-x-x-4-4-x-7/-9-
E----------------------------

Chorus (distortion)
 
e-----------------------------------------------------
b-----------------------------------------------------
g-6-6-2-2-2-2-6-6-2-2-2-2-6-6-2-2-2-2-----------------
d-6-6-2-2-2-2-6-6-2-2-2-2-6-6-2-2-2-2-2-2-2-2-4-4-4-4-  x2
a-4-4-0-0-0-0-4-4-0-0-0-0-4-4-0-0-0-0-2-2-2-2-4-4-4-4-
E-------------------------------------0-0-0-0-2-2-2-2-

Bridge (distortion)

e-----------------------------
b-----------------------------
g-6-6-0-0-6-6-0-0-6-6-0-------
d-6-6-----6-6-----6-6---2-4-4- x4
a-4-4-----4-4-----4-4---2-4-4-
E-----------------------0-2-2-

Verse 2 (clean)

e----------------------------
b----------------------------
g-6-6-x-x-6-6-x-x-6-6-x-9/11-
d-6-6-x-x-6-6-x-x-6-6-x-9/11-  x4
a-4-4-x-x-4-4-x-x-4-4-x-7/-9-
E----------------------------

Chorus (distortion)
 
e-----------------------------------------------------
b-----------------------------------------------------
g-6-6-2-2-2-2-6-6-2-2-2-2-6-6-2-2-2-2-----------------
d-6-6-2-2-2-2-6-6-2-2-2-2-6-6-2-2-2-2-2-2-2-2-4-4-4-4-  x2
a-4-4-0-0-0-0-4-4-0-0-0-0-4-4-0-0-0-0-2-2-2-2-4-4-4-4-
E-------------------------------------0-0-0-0-2-2-2-2-

Interlude (clean)
[ Tab from: http://www.guitartabs.cc/tabs/v/vines/ride_tab_ver_9.html ]
Guitar 1
e-----------------------------------------------------------------
b-----------------------------------------------------------------
g-----------------------------------------------------------------
d-7-7-7-7-7-7-7-7-5-5-5-5-5-5-5-5-4-4-4-4-4-4-4-4-4-4-4-4-4-4-4-4-  
a-7-7-7-7-7-7-7-7-5-5-5-5-5-5-5-5-4-4-4-4-4-4-4-4-4-4-4-4-4-4-4-4-
E-5-5-5-5-5-5-5-5-3-3-3-3-3-3-3-3-2-2-2-2-2-2-2-2-2-2-2-2-2-2-2-2-

Guitar 2                                                              x2

e-----------------------------------------------------------------
b-----------------------------------------------------------------
g------7Bu5-5Bu3-------5bu3-3Bu1-------4bu2-2Bu0-------4bu2-2bu0--
d-----------------------------------------------------------------
a-----------------------------------------------------------------
E-----------------------------------------------------------------

Solo (distortion)
Guitar 1                                                   (16=sixteen)
e---------------------------------------------------------------------
b-2-2-2-2-2-2-2-2-5-5-5-5-5-5-5-5-8-8-8-8-8-8-8-8--1616--1616--16-1616 
g---------------------------------------------------------------------
d---------------------------------------------------------------------
a---------------------------------------------------------------------
E---------------------------------------------------------------------

Guitar 2
e--------------------------------------------------------------------
b--------------------------------------------------------------------
g-66xx66xx66x-----66xx66xx66x----66xx66xx66x-----66----66----66------
d-66xx66xx66x2-4--66xx66xx66x2-4-66xx66xx66x2-4--66----66----66--2-44
a-44xx44xx44x2-4--44xx44xx44x2-4-44xx44xx44x2-4--44----44----44--2-44
e------------0-2-------------0-2------------0-2------------------0-22

Bridge (clean)

e-------------------------------
b-------------------------------
g-6-6-x-x-6-6-x-x-6-6-x-9/11-11-
d-6-6-x-x-6-6-x-x-6-6-x-9/11-11- x4
a-4-4-x-x-4-4-x-x-4-4-x-7/-9--9-
E-------------------------------

Chorus (distortion)
 
e-----------------------------------------------------
b-----------------------------------------------------
g-6-6-2-2-2-2-6-6-2-2-2-2-6-6-2-2-2-2-----------------
d-6-6-2-2-2-2-6-6-2-2-2-2-6-6-2-2-2-2-2-2-2-2-4-4-4-4-  x2
a-4-4-0-0-0-0-4-4-0-0-0-0-4-4-0-0-0-0-2-2-2-2-4-4-4-4-
E-------------------------------------0-0-0-0-2-2-2-2-

Outro (clean)

e---------
b---------
g-6-6-x-x-
d-6-6-x-x-
a-4-4-x-x-
E---------

End

Please Rate. Thanks.
Comments