Vines - Ride Chords & Tabs

 

Ride Chords & Tabs

Vines Chords & Tabs

Version: 4 Type: Tab 1 rating
1 star 2 stars 3 stars 4 stars 5 stars
comments

Ride Tab

   
#----------------------------------PLEASE NOTE---------------------------------#
#This file is the author's own work and represents their interpretation of the #
#song. You may only use this file for private study, scholarship, or research. #
#------------------------------------------------------------------------------#
Artist: The Vines
Song: Ride 
CD: Winning Days 
Track 1  

Tabbed By GuitarAnarchist
Comments and corrections to thegrammarcop@hotmail.com

Standard Tuning: EADGBe 
pm = palm mute
x = mute string


Intro/Verse
e|---------------------------------| 
B|---------------------------------|
G|-6-6-x-x-6-6-x-x-6-6-x-9-x-11-11-| 
D|-6-6-x-x-6-6-x-x-6-6-x-9-x-11-11-| x4 as intro (then x4 w/ verse)
A|-4-4-x-x-4-4-x-x-4-4-x-7-x--9--9-| 
E|---------------------------------|
   C#                    E   F#

That's the start, the middle, and the end

 
Chorus
e|-------------------------------------------------| 
B|-------------------------------------------------|
G|-6-6---------6-6---------6-6---------------------| 
D|-6-6-7-7-7-7-6-6-7-7-7-7-6-6-7-7-7-7-2-2-4-4-4-4-| x2
A|-4-4-7-7-7-7-4-4-7-7-7-7-4-4-7-7-7-7-2-2-4-4-4-4-| 
E|-----5-5-5-5-----5-5-5-5-----5-5-5-5-0-0-2-2-2-2-|
   C#  A       C#  A       C#  A       E   F#

Ride with me, Ride with me, Ride with me, home


Post-Chorus 1
e|----------------------------|     
B|----------------------------|     
G|-6-6-----6-6-----6-6--------| x4  
D|-6-6-5-5-6-6-5-5-6-6-5-2-4--|  
A|-4-4-5-5-4-4-5-5-4-4-5-2-4--|     
E|-----3-3-----3-3-----3-0-2--|     
   C#  G   C#  G   C#  G E F#

Intro / Verse
e|---------------------------------| 
B|---------------------------------|
G|-6-6-x-x-6-6-x-x-6-6-x-9-x-11-11-| 
D|-6-6-x-x-6-6-x-x-6-6-x-9-x-11-11-| x4 w/ verse
A|-4-4-x-x-4-4-x-x-4-4-x-7-x--9--9-| 
E|---------------------------------|
   C#                    E   F#

Thought a lot ignored the right to be ...
[ Tab from: http://www.guitartabs.cc/tabs/v/vines/ride_tab_ver_4.html ]
Chorus
e|-------------------------------------------------| 
B|-------------------------------------------------|
G|-6-6---------6-6---------6-6---------------------| 
D|-6-6-7-7-7-7-6-6-7-7-7-7-6-6-7-7-7-7-2-2-4-4-4-4-| x2
A|-4-4-7-7-7-7-4-4-7-7-7-7-4-4-7-7-7-7-2-2-4-4-4-4-| 
E|-----5-5-5-5-----5-5-5-5-----5-5-5-5-0-0-2-2-2-2-|
   C#  A       C#  A       C#  A       E   F#

Ride with me, Ride with me, Ride with me, home


Bridge
e---------|----------|-----------|-----------|       
B---------|----------|-----------|-----------|
G---------|----------|-----------|-----------|
D-7-7-7-7-|--5-5-5-5-|--4-4-4-4—-|--4-4-4-4--| 
A-7-7-7-7-|--5-5-5-5-|--4-4-4-4--|--4-4-4-4--|
E-5-5-5-5-|--3-3-3-3-|--2-2-2-2--|--2-2-2-2--|
  A          G          F#          F#

         

e---------|----------|--------------|       
B---------|----------|--------------|
G---------|----------|--------------|
D-7-7-7-7-|--5-5-5-5-|--4-----—-----|
A-7-7-7-7-|--5-5-5-5-|--4—(x16 pm)--|
E-5-5-5-5-|--3-3-3-3-|--2-----------|
  A          G          B           

               I'm not waiting alone 

Post-Chorus 2
e|----------------------------|       e|----------------------|
B|----------------------------|       B|----------------------|
G|-6-6-----6-6-----6-6--------| x3    G|----------------------|
D|-6-6-5-5-6-6-5-5-6-6-5-2-4--| then  D|--5-5—-5-5--5—5--2-4--|
A|-4-4-5-5-4-4-5-5-4-4-5-2-4--|       A|--5-5—-5-5--5—5--2-4--|
E|-----3-3-----3-3-----3-0-2--|       E|--3-3—-3-3--3—3--0-2--|
   C#  G   C#  G   C#  G E F#             G              E F# 

 
Intro / Verse
e|---------------------------------| 
B|---------------------------------|
G|-6-6-x-x-6-6-x-x-6-6-x-9-x-11-11-| 
D|-6-6-x-x-6-6-x-x-6-6-x-9-x-11-11-| x4 as intro (no lyrics)
A|-4-4-x-x-4-4-x-x-4-4-x-7-x--9--9-| 
E|---------------------------------|
   C#                    E   F#

Chorus
e|-------------------------------------------------| 
B|-------------------------------------------------|
G|-6-6---------6-6---------6-6---------------------| 
D|-6-6-7-7-7-7-6-6-7-7-7-7-6-6-7-7-7-7-2-2-4-4-4-4-| x2
A|-4-4-7-7-7-7-4-4-7-7-7-7-4-4-7-7-7-7-2-2-4-4-4-4-| 
E|-----5-5-5-5-----5-5-5-5-----5-5-5-5-0-0-2-2-2-2-|
   C#  A       C#  A       C#  A       E   F#

Ride with me, Ride with me, Ride with me, home


Outro
e------
B------
G-6-6--
D-6-6--
A-4-4--
E------
  C#
Comments