Vines - Ride Chords & Tabs

 

Ride Chords & Tabs

Vines Chords & Tabs

Version: 1 Type: Tab 0 ratings
1 star 2 stars 3 stars 4 stars 5 stars
comments

Ride Tab

Tab
By : Adrian Rodriguez
Artist : The Vines
Song : Ride

Bueno esta cancion es muy buena y pegajosa aqui intente sacar la mayor parte de la cancion
disfruntela!!
PD: me faltan las partes con basura

Intro y Verse
[ Tab from: http://www.guitartabs.cc/tabs/v/vines/ride_tab.html ]
e|------------------------------------------------------------|
B|------------------------------------------------------------|
G|--6--6--6--6-----9-9-9-9--11-11-11--13-13-13----------------|
D|--6--6--6--6-----9-9-9-9--11-11-11--13-13-13----------------|
A|--4--4--4--4-----7-7-7-7--9--9--9---11-11-11----------------|
E|------------------------------------------------------------|

Chorus

e|------------------------------------|
B|------------------------------------|
G|--6-6-6-------6-6-6-----------------|
D|--6-6-6-7-7-7-6-6-6-7-7-7--4-4-4----|
A|--4-4-4-7-7-7-4-4-4-7-7-7--4-4-4----|
E|--------5-5-5-------5-5-5--2-2-2----|

Bridge [1:31]

e|--------------------------|
B|--------------------------|
G|--------------------------|
D|---7-7-7--5-5-5--4-4-4----|
A|---7-7-7--5-5-5--4-4-4----|
E|---5-5-5--3-3-3--2-2-2----|x2
Comments