Vines - Ride Chords & Tabs

 

Ride Chords & Tabs

Vines Chords & Tabs

Version: 4 Type: Bass Tab 0 ratings
1 star 2 stars 3 stars 4 stars 5 stars
comments

Ride Bass Tab

   
-Intro-
G|--------------------------------------|
D|--------------------------------------|
A|--------------------------------------|
E|-9-9-9-9-9999-9999-9999-9999-9999-9-9-|

-Verse-
G|-------------------------------|
D|-------------------------------|
A|-----7-8-----------7-8-9-9-7-6-| (x3)
E|-9-9-----9-9-7-9-9-------------|

G|------------------|
D|------------------|
A|------------7-997-|
E|-99--99--99-------|

-Chorus-
G|---------------------------------------------------------------------------|
D|---------------------------------------------------------------------------|
A|--------0-(0)-0----0--------0-(0)-0/12-0--------0-0-0----0-7-7-7-9-9-7-9-6-|
E|-9-9/12--------/12---9-9/12--------------9-9/12------/12-------------------|

G|-------------------------------------------|
D|--------------2-2-4-2----------------------|
A|-44---44---44------------------------------|
E|---33---33---3---------44--44--44--7--9--7-|

-Verse-
-Chorus-
[ Tab from: http://www.guitartabs.cc/tabs/v/vines/ride_btab_ver_4.html ]
-Bridge-
G|------------------------------------------|
D|-----------5-5-5-----4-4-424-2-4-4-44-----|
A|------454-------2320----------------------|
E|-5-5-5---5----------------------------234-|

G|---------------------------------------|
D|-----------5-5-5-----44444444-44332210-|
A|------454-------2320-------------------|
E|-5-5-5---5-----------------------------|

-Guitar Solo-
G|----------------------|
D|--------------2-2-4-2-|
A|-432--432--432--------| (x3)
E|----3----3------------|

G|----------------|
D|----------------|
A|------------7-9-|
E|-99--99--99-----|

-BreakDown-
G|---------------|
D|---------------|
A|--( R E S T )--|
E|---------------|

G|----------|
D|----------|
A|----------| (x4)
E|-99999999-|

-Outro Chorus-
G|---------------------------------------------------------------------------|
D|---------------------------------------------------------------------------|
A|--------0-0-0----0--------0-0-0/12-0--------0-0-0----0-7-7-7-9-9-9-7-6-----|
E|-9-9/12------/12---9-9/12------------9-9/12------/12--------------------99-|
Comments