Vines - Ride Chords & Tabs

 

Ride Chords & Tabs

Vines Chords & Tabs

Version: 2 Type: Bass Tab 1 rating
1 star 2 stars 3 stars 4 stars 5 stars
comments

Ride Bass Tab

   
Ride Bass Tab
Music by: The Vines
This is my first tab so if its rong or soemthings messed dont blame me.. its just my first one.. and send me corrections at >>> violetsky35@hotmail.com

b=bend 


1st Verse:
Thats the start the middle and the end....

G------------------------------------------------------
D---------2-4----------------------------------------
A----4-4------4-4-2-4---4-2-3-4-4-3-2--------
E------------------------------------------------------

Aren't you glad the universe pretends...

G-------------------------------------------------------
D---------2-4-----------------------------------------
A----4-4------4-4-2-4---4-2-3-4-4-3-2---------
E-------------------------------------------------------

If I dont get this message home...

G------------------------------------------------------
D---------2-4----------------------------------------
A----4-4------4-4-2-4---4-2-3-4-4-3-2--------
E------------------------------------------------------

Once again im gonna hate alone...

G------------------------------------------------------
D---------------------------2-4b---------------------
A----4-4---4-4---4-4-------------------------------
E------------------------------------------------------




Chorus:

Ride with me....

G-----------------------------------------------------------------------------------------------
D-----------------------------------------------------------------------------------------------
A----4-4---0-0-0----4-4---0-0-0----4-4---0-0-0---------------------------------------
E----------------------------------------------------------------0-0-0---2---2-2-2---------

Bridge to next verse....

G--------------------------------------------------------
D---------2-4------2-4---------2-4b-----------------
A----4-4------4-4-------4-4--------------------------
E--------------------------------------------------------

G--------------------------------------------------------
D---------2-4------2-4---------2-4b-----------------
A----4-4------4-4-------4-4--------------------------
E--------------------------------------------------------

G-------------------------------------------------------
D---------2-4------2-4---------2-4b----------------
A----4-4------4-4-------4-4-------------------------
E-------------------------------------------------------

G-------------------------------------------------------
D------------------------2-4b-------------------------
A----4-4---4-4---4-4--------------------------------
E-------------------------------------------------------


2nd Verse:
bored aloud ignore the right to be....

G--------------------------------------------------
D---------2-4------------------------------------
A----4-4------4-4-2-4---4-2-3-4-4-3-2----
E--------------------------------------------------

Invite me down because we like to see...

G---------------------------------------------------
D---------2-4-------------------------------------
A---4-4------4-4-2-4---4-2-3-4-4-3-2------
E---------------------------------------------------

The coulors through your loaded mind...

G-----------------------------------------------------------------------------------------------------
D---------2-4---------------------------------------------------------------------------------------
A----4-4------4-4-2-4---4-2-3-4-4-3-2-------------------------------------------------------
E-----------------------------------------------------------------------------------------------------

**** the world and liberate out time...
[ Tab from: http://www.guitartabs.cc/tabs/v/vines/ride_btab_ver_2.html ]
G-----------------------------------------------------------------------------------------------------
D---------------------------2-4b--------------------------------------------------------------------
A----4-4---4-4---4-4------------------------------------------------------------------------------
E-----------------------------------------------------------------------------------------------------


Chorus:

Ride with me....

G-----------------------------------------------------------------------------------------------
D-----------------------------------------------------------------------------------------------
A----4-4---0-0-0----4-4---0-0-0----4-4---0-0-0---------------------------------------
E----------------------------------------------------------------0-0-0---2---2-2-2---------

Bridge:

G-----------------------------------------------------------------------------------------------
D-----------------------------------------------------------------------------------------------
A----5--5--5--5--3--3--3--3--2--2--2--2--2--2--2--2---------------------------------
E------------------------------------------------------------------------------------------------

G-----------------------------------------------------------------------------------------------
D-----------------------------------------------------------------------------------------------
A----5--5--5--5--3--3--3--3--2-2-2-2-2-2-2-2-2-2-2-2-2-2-2-2-------------------
E------------------------------------------------------------------------------------------------

With solo:

G-----------------------------------------------------------------------------------------------------
D--------------------------------------2-4b---------------------------------------------------------
A----4-4-2-0----4-4-2-0---4-4-----------------------------------------------------------------
E-----------------------------------------------------------------------------------------------------

G-----------------------------------------------------------------------------------------------------
D--------------------------------------2-4b---------------------------------------------------------
A----4-4-2-0----4-4-2-0---4-4-----------------------------------------------------------------
E-----------------------------------------------------------------------------------------------------

G-----------------------------------------------------------------------------------------------------
D--------------------------------------2-4b---------------------------------------------------------
A----4-4-2-0----4-4-2-0---4-4-----------------------------------------------------------------
E-----------------------------------------------------------------------------------------------------

G-----------------------------------------------------------------------------------------------------
D---------------------------2-4b--------------------------------------------------------------------
A----4-4---4-4---4-4------------------------------------------------------------------------------
E-----------------------------------------------------------------------------------------------------


Chorus:

Ride with me....

G-----------------------------------------------------------------------------------------------
D-----------------------------------------------------------------------------------------------
A----4-4---0-0-0----4-4---0-0-0----4-4---0-0-0---------------------------------------
E----------------------------------------------------------------0-0-0---2---2-2-2---------



ok.. thats it.. hope u find it alright... by the way.. for those of u hoo have no idea wut the string names are... E the string with the loest sound.. go from there
..... l8r
Comments