Vines - Ride Chords & Tabs

 

Ride Chords & Tabs

Vines Chords & Tabs

Version: 1 Type: Bass Tab 0 ratings
1 star 2 stars 3 stars 4 stars 5 stars
comments

Ride Bass Tab

#----------------------------------PLEASE NOTE---------------------------------#
#This file is the author's own work and represents their interpretation of the #
#song. You may only use this file for private study, scholarship, or research. #
#------------------------------------------------------------------------------#
The Vines - Ride
Album - Winning Days
Tab Author - FunkOnCrack (what_is_86@hotmail.com)
Notes - Enjoy, there's tiny variations of some things, 
        but this pretty much covers it all. Still not 
        100% sure on the Bridge.


Intro (Guitar only)

Verse     x4
G|---------------------------------|
D|-----------------------2--4-4-2--|
A|-4-4-x-x-4-4-x-x-4-4-x-----------|
E|---------------------------------|

Chorus x2  (all of it)
                   x3   Last time
G|-------------------|------------------|
D|-------------------|------------------|
A|-4-4-4--0-0-0-0-0--|------------------|
E|-------------------|--0-0-0-2-2-2-2-2-|

After chorus     x4 
G|---------------------------------|
D|-----------------------2--4-4-2--|
A|-4-4-x-x-4-4-x-x-4-4-x-----------|
E|---------------------------------|

Verse   x8
G|---------------------------------|
D|-----------------------2--4-4-2--|
A|-4-4-x-x-4-4-x-x-4-4-x-----------|
E|---------------------------------|
[ Tab from: http://www.guitartabs.cc/tabs/v/vines/ride_btab.html ]
Chorus x2  (all of it)
                   x3   Last time
G|------------2-2-2--|------------------|
D|-------------------|------------------|
A|-4-4-4--0-0--------|------------------|
E|-------------------|--0-0-0-2-2-2-2-2-|

Bridge  (95% sure)
G|------------------------------------------------------|
D|--------2-4-2-------2-4-2---------2-4-2--------2-4-2--|
A|--4-4-4-------2-2-2-----------------------------------|
E|---------------------------2-2-2---------2-2-2--------|

G|------------------------------------------------------------|
D|--------2-4-2-------2-4-2-----------------------------------|
A|--4-4-4-------2-2-2-----------------------------------------|
E|---------------------------2-2-2-2-2-2-2-2-2-2-2-2-2-2-2-2--|

Solo        x4
G|---------------------------------|
D|-----------------------2--4-4-2--|
A|-4-4-x-x-4-4-x-x-4-4-x-----------|
E|---------------------------------|

Break (no bass)

Lead In   x4
G|-------------------|
D|-------------------|
A|--4-4-4-4-4-4-4-4--|
E|-------------------|

Chorus x2 (all of it)
                  x3   Last time
G|------------2-2-2-|-------------------|
D|------------------|-------------------|
A|--4-4-4-0-0-------|-------------------|
E|------------------|--0-0-0-2-2-2-2-2--|

Outro
G|-----------|
D|-----------|
A|--4-4-x-x--|
E|-----------|
Comments