Vines - Outtathaway With Solo Chords & Tabs

 

Outtathaway With Solo Chords & Tabs

Vines Chords & Tabs

Version: 1 Type: Tab 0 ratings
1 star 2 stars 3 stars 4 stars 5 stars
comments

Outtathaway With Solo Tab

   
bare A 5776XX, bare G 3554XX, bare C 810109XX|

solo
e|-
B|-
G|-
D|--5h7-5-
A|--------7-5~-3-3---3-5-7--
E|5----------------5-------5        x2

e|-
B|-
G|-
D|--5h7-5-
A|--------7-5~-3-3---3-5-7--
E|3----------------5-------5        x1

e|-
B|-
G|--7-5-----------5
D|-----7-5----5-7---7
A|--------5h7---------7-5
E|5-----------------------5         x1
[ Tab from: http://www.guitartabs.cc/tabs/v/vines/outtathaway_with_solo_tab.html ]
e|-
B|----------------8
G|--7-5-7p5-7/9-9---7~
D|---------------------5
A|-----------------------7
E|5-----------------------          x1

e|------
B|------
G|9-8-7-
D|------
A|------
E|------                            x4

e|----------------------------------
B|----------------------------------
G|9-8-7-5---------------------------
D|--------7-5h7--------------------7
A|--------------7-5~-3-3---3-5-7---7
E|-----------------------5-------5-5  x1


tabbed by rasti
rasti@daddelgott.de
the vines rewl ! :D




Comments