Vines - Outtathaway! Chords & Tabs

 

Outtathaway! Chords & Tabs

Vines Chords & Tabs

Version: 6 Type: Tab 0 ratings
1 star 2 stars 3 stars 4 stars 5 stars
comments

Outtathaway! Tab

   
-------------------------------------------------------------------------------
			     Outtathaway - The Vines
-------------------------------------------------------------------------------
Tabbed by: Sam
Email: jacob8520@hotmail.com

Tuning:

e|---------------------------------------------------------------------------|
B|---------------------------------------------------------------------------|
G|---------------------------------------------------------------------------|
D|-----5>7--5----------------------------------------------------------------|
A|--0----------7--5--3--0--3--5b---------------------------------------------|
E|---------------------------------------------------------------------------|

e|---------------------------------------------------------------------------|
B|---------------------------------------------------------------------------|
G|---------------------------------------------------------------------------|
D|-----5>7--5----------------------------------------------------------------|
A|--0----------7--5--3--0--3--5b---------------------------------------------|
E|---------------------------------------------------------------------------|

e|---------------------------------------------------------------------------|
B|---------------------------------------------------------------------------|
G|---------------------------------------------------------------------------|
D|-----5>7--5----------------------------------------------------------------|
A|-------------7--5--3--0--3--5b---------------------------------------------|
E|--3------------------------------------------------------------------------|
[ Tab from: http://www.guitartabs.cc/tabs/v/vines/outtathaway_tab_ver_6.html ]
e|---------------------------------------------------------------------------|
B|---------------------------------------------------------------------------|
G|---------------------------------------------------------------------------|
D|-----5>7--5----------------------------------------------------------------|
A|--0----------7--5--3--0--3--5b---------------------------------------------|
E|---------------------------------------------------------------------------|

e|-------------5-----------------------5-------------------------------------|
B|-------------5-----------------------5-------------------------------------|
G|----------7--5--------------------7--5--9--7-------------------------------|
D|-----5>7--------7--5--------7--5-------------------------------------------|
A|--0-------------------7--5-------------------------------------------------|
E|---------------------------------------------------------------------------|

e|---------------------------------------------------------------------------|
B|---------------------------------------------------------------------------|
G|--9-8-7-9-8-7-9-8-7-9-8-7-9------------------------------------------------|
D|---------------------------------------------------------------------------|
A|---------------------------------------------------------------------------|
E|---------------------------------------------------------------------------|

e|---------------------------------------------------------------------------|
B|---------------------------------------------------------------------------|
G|--7--5---------------------------------------------------------------------|
D|--------7--5---------------------------------------------------------------|
A|--------------7--5--3--0--3--5b--0-----------------------------------------|
E|---------------------------------------------------------------------------|

e|---------------------------------------------------------------------------|
B|---------------------------------------------------------------------------|
G|---------------------------------------------------------------------------|
D|---------------------------------------------------------------------------|
A|---------------------------------------------------------------------------|
E|---------------------------------------------------------------------------|

| /  slide up
| \  slide down
| h  hammer-on
| p  pull-off
| ~  vibrato
| +  harmonic
| x  Mute note
===============================================================================
Comments