Vines - Outtathaway! Chords & Tabs

 

Outtathaway! Chords & Tabs

Vines Chords & Tabs

Version: 4 Type: Tab 0 ratings
1 star 2 stars 3 stars 4 stars 5 stars
comments

Outtathaway! Tab

Title: Outtathaway 
Band: The Vines 
Album: Highly Evolved
tabbed by Richie    r_lee4@hotmail.com 

The solo:

E---------------------------------------------------------
B--------------------------------------------------------- 
G--------------------------------------------------------- 
D-------7--5----------------------------------------------
A---0----------7-----5b7r5---3----3-5--5/7--0-------------
E-------------------------------5------------------------- 

E--------------------------------------------------------- 
B--------------------------------------------------------- 
G---------------------------------------------------------
D-----7--5------------------------------------------------
A--0-------7--5b7r5----3----3--5--5/7--0------------------
E-------------------------5------------------------------- 
[ Tab from: http://www.guitartabs.cc/tabs/v/vines/outtathaway_tab_ver_4.html ]
E--------------------------------------------------------- 
B--------------------------------------------------------- 
G---------------------------------------------------------
D------7---5----------------------------------------------
A------------7-----5b7r5---3-----3---5--5/7--0------------
E--3---------------------------5--------------------------  
  
E---------------------------------------------------------
B---------------------------------------------------------
G---7--5--------------5-------7-5-7-5-7/9--9--7--5--------
D---------7-5----5-7----7-5------------------------7------
A--------------7------------------------------------------
E--------------------------------------------------------- 

E--------------------------------------------------------- 
B--------------------------------------------------------- 
G--9-8-7--9-8-7--9-8-7--9-8-7--9-8-7----------------------
D------------------------------------10-------------------
A---------------------------------------------------------
E--------------------------------------------------------- 

E---------------------------------------------------------
B---------------------------------------------------------
G----------------------------------2----------------------
D--7-7-5---------------------------2----------------------
A--------7--5b7r5--3---3-5/7--0----0----------------------
E--------------------5------------------------------------
Comments