Vines - Outtathaway! Chords & Tabs

 

Outtathaway! Chords & Tabs

Vines Chords & Tabs

Version: 1 Type: Tab 0 ratings
1 star 2 stars 3 stars 4 stars 5 stars
comments

Outtathaway! Tab

   
#----------------------------------PLEASE NOTE---------------------------------#
#This file is the author's own work and represents their interpretation of the #
#song. You may only use this file for private study, scholarship, or research. #
#------------------------------------------------------------------------------#

The Vines - Outtathaway!
Tabbed By: Travis

/=slide
p=pull off
h=hammeron

Intro
E-------------------------
B-------------------------
G-6--6--4-4--6-6/-9---9--9
D-7--7--5-5--7-7/10--10-10 (x 4)
A-7--7--5-5--7-7/10--10-10
E-5--5--3-3--5-5/-8---8--8

Verse
E-------------------------|------------------------|------------------|-------------------------|
B-------------------------|------------------------|------------------|-------------------------|
G-6--6-4-4--6-6/-9---9--9-|-6--6-44--6-6/-9---9--9-|-4-4--2-2--4-4/-7-|-6--6-4-4--6-6/-9---9--9-|
D-7--7-5-5--7-7/10--10-10-|-7--7-55--7-7/10--10-10-|-5-5--3-3--5-5/-8-|-7--7-5-5--7-7/10--10-10-|
A-7--7-5-5--7-7/10--10-10-|-7--7-55--7-7/10--10-10-|-5-5--3-3--5-5/-8-|-7--7-5-5--7-7/10--10-10-|
E-5--5-3-3--5-5/-8---8--8-|-5--5-33--5-5/-8---8--8-|-3-3--1-1--3-3/-6-|-5--5-3-3--5-5/-8---8--8-|

Chorus
E---------------------------------|-----------------------------------|
B---------------------------------|-----------------------------------|
G-6-6--6-6-6/-9----9---9/-4---4-4-|-8-8--8-8-8/-11--11-11/-9----9---9-|
D-7-7--7-7-7/10---10--10/-5---5-5-|-9-9--9-9-9/-12--12-12/10---10--10-|
A-7-7--7-7-7/10---10--10/-5---5-5-|-9-9--9-9-9/-12--12-12/10---10--10-|
E-5-5--5-5-5/-8----8---8/-3---3-3-|-7-7--7-7-7/-10--10-10/-8----8---8-|

Solo
[ Tab from: http://www.guitartabs.cc/tabs/v/vines/outtathaway_tab.html ]
E--------------------------------------------------------------------
B--------------------------------------------------------------------
G--------------------------------------------------------------------
D---7-5------------------------------7-5-----------------------------
A-------7-7p5--3-3-0-3-0-5-7------------7-7p5--3-3-0-3-0-7-5---------
E-5--------------------------------5---------------------------------

(continued...)

E-----------------------------------------------------------------
B-----------------------------------------------------------------
G-----------------------------------------------------------------
D---7-5----------------------------7-5----------------------------
A-------7-7p5--3-3-0-3-0-5-7-----------7-7p5--3-3-0-3-0-7-5-------
E-3------------------------------5--------------------------------

(continued...)

E-------------------------------------------------------------------------------------------------------
B-------------------------------------------------------------------------------------------------------
G-7-5-----------5----------7-5-7-5/9-9-8p7-5--9-8-7-9-8-7-9-8-7-9-8-7-9-8-7-5---------------------------
D-----7-5---5h7---7-7p5-------------------------------------------------------7-7-5---------------------
A---------7-------------7-----------------------------------------------------------7-7p5-3-3-0-3-0-5-7-
E-------------------------------------------------------------------------------------------------------

Bridge (Play four times palm muted then play four times standard)

E---------------------------------|-----------------------------------|
B---------------------------------|-----------------------------------|
G-6-6--6-6-6/-9----9---9/-4---4-4-|-8-8--8-8-8/-11--11-11/-9----9---9-|
D-7-7--7-7-7/10---10--10/-5---5-5-|-9-9--9-9-9/-12--12-12/10---10--10-|
A-7-7--7-7-7/10---10--10/-5---5-5-|-9-9--9-9-9/-12--12-12/10---10--10-|
E-5-5--5-5-5/-8----8---8/-3---3-3-|-7-7--7-7-7/-10--10-10/-8----8---8-|

Outro

E--------------
B--------------
G-6--6--4-4--6-
D-7--7--5-5--7-
A-7--7--5-5--7-
E-5--5--3-3--5-


ENJOY & GOOD LUCK WITH THE SONG!
Comments