Vines - Outathaway Solo Chords & Tabs

 

Outathaway Solo Chords & Tabs

Vines Chords & Tabs

Version: 1 Type: Tab 0 ratings
1 star 2 stars 3 stars 4 stars 5 stars
comments

Outathaway Solo Tab

E|--------------------------------------------------------------
B|--------------------------------------------------------------
G|--------------------------------------------------------------
D|--------------------------------------------------------------
A|--0--12-10-7-5/6\5-3--0-3-5-6-0-0--12-10-7-5/6\5-3--0-3-5-6-0-
E|--------------------------------------------------------------


E|--------------------------------------------------------------
B|--------------------------------------------------------------
G|--------------------------------------------------------------
D|--------------------------------------------------------------
A|-----12-10-7-5/6\5-3--0-3-5-6-0-0--12-10-7-5/6\5-3--0-3-5-6-0-
E|--3-----------------------------------------------------------

[ Tab from: http://www.guitartabs.cc/tabs/v/vines/outathaway_solo_tab.html ]
E|------------------------------------------------------------------
B|------------------------------------------------------------------
G|------------------------------------------------------------------
D|-----12-10-7-5--2-5-7-10-7-5-2-----12-10-12-10-12/14---13-12-10---
A|--0-----------------------------0--------------------0----------0-
E|------------------------------------------------------------------



E|------------------------------------------------------------------------------------
B|------------------------------------------------------------------------------------
G|------------------------------------------------------------------------------------
D|--14-13-12-14-13-12-14-13-12-14-13-12-14-13-12-10-----------------------------------
A|-------------------------------0------------------12--12-10-7-5/6\5-3--0-3-5-6-0-0r-
E|------------------------------------------------------------------------------------
Comments