Vines - Ms Jackson Chords & Tabs

 

Ms Jackson Chords & Tabs

Vines Chords & Tabs

Version: 2 Type: Tab 0 ratings
1 star 2 stars 3 stars 4 stars 5 stars
comments

Ms Jackson Tab

the vines
ms jackson (mostly the live version)
kevin parker
loopezz@hotmail.com

standard tuning
[ Tab from: http://www.guitartabs.cc/tabs/v/vines/ms_jackson_tab_ver_2.html ]
there isn't much to this song so here it is. 
        [start song properly here >]           i'm sorry ms jackson
e|--------5-------|----5-----------||-0---0-0----0----|--0-----0---------
b|--3-------3---3-|------3---3-----||-1---1-1----1----|--1-----1---------
g|----0-------0---|0-------0-------||-0---0-0----0----|--0-----0---------
d|------4---------|--4-----------4-||-2---2-2----2----|--2-----2---------
a|5---------------|------------5---||-3---3-3----3----|--3-----3---------
e|----------------|----------------||-----------------|-----------------
  i am for      re-e-al              never meant to    make your daughter cry
e|0-----0---------|-5---5-5----5---||-0------0-0---0--|----0-----0-0-----
b|1-----1---------|-3---3-3----3---||-0------0-0---0--|----0-----0-0-----
g|0-----0---------|-0---0-0----0---||-0------0-0---0--|----0-----0-0-----
d|2-----2---------|-4---4-4----4---||-2------2-2---2--|----2-----2-2-----
a|3-----3---------|-5---5-5----5---||-2------2-2---2--|----2-----2-2-----
e|----------------|----------------||-0------0-0---0--|----0-----0-0----
  i apologise    a trillion times       i'm sorry ms jackson.....
e|0---0-0-----0---|----0---0-0-----||-0----0-0----0---|--0----0-0--------
b|3---3-3-----3---|----3---3-3-----||-1----1-1----1---|--1----1-1--------
g|0---0-0-----0---|----0---0-0-----||-0----0-0----0---|--0----0-0--------
d|4---4-4-----4---|----4---4-4-----||-2----2-2----2---|--2----2-2--------
a|5---5-5-----5---|----5---5-5-----||-3----3-3----3---|--3----3-3--------
e|----------------|----------------||-----------------|---------------

the rest of the song is the same chord progression,
i.e. the "me and your daughter" part and "you say it's puppy love"
Comments