Vines - In The Jungle Chords & Tabs

 

In The Jungle Chords & Tabs

Vines Chords & Tabs

Version: 3 Type: Tab 0 ratings
1 star 2 stars 3 stars 4 stars 5 stars
comments

In The Jungle Tab

   
Vines - In the Jungle

Intro/ Riff 1

|--------------------|
|--------------------|
|--------------------|
|---2-0-----2-0------|
|--2---0---2---0-----|
|-0-----0-0-----0----|

Verse w/t Riff 1.
In the jungle you can sleep
with the commandments at your feet
where the devil lays his hand

you dont even have to think
im tearin holes without a sink
but i know just where i stand 


Bridge 1
|--------------|
|--------------|
|--------------|
|---2----------|
|------1-1--0--| in a very slow tempo
|-0--0-------3-|

Lines from the story you put before me
i dont know what to choose
under the oak tree tin all around me
i dont know what to prove

Riff 3:
|------------0--|
|------------0--|
|------------1--|
|------------2--|
|-2-----2----2--|
|-0-/5b-0----0--|

Chorus:

Riff 2
|--------------|
|--------------|
|--------------|
|---2----------|
|------1-1-0---|
|-0--0-------3-|Riff 2             Riff 2      
Youre in the jungle Youre in the jungle 
Riff2                    A    G  
youre in the jungle thats you
Riff 2              Riff 2
youre in the jungle youre in the jungle
Riff 2                A      G
Youre in the jungle ooooooooohhh

Solo ( i think Riff 2 is played while the solo plays 
but im not sure.)

Then this part comes
B                     A
ill be waiting for a hit yeah
             C             B
Aint gonna seem fair tonight
B                          A
and ill keep having other fits yeah
            C
because it makes me feel alright ALRIGHT ALRIGHT

Then this part comes:
[ Tab from: http://www.guitartabs.cc/tabs/v/vines/in_the_jungle_tab_ver_3.html ]
B B BB G G# A A AA BB B C B A couple of times.

Then comes solo 2:

|---------------------------------------------------|
|--7-7-7-7-7-7-5-5--7-7-7-7-7-7-5-5--1-1-1-1--------|
|---------------------------------------------4-----|
|----------------------------------------------4----|
|---------------------------------------------------|
|---------------------------------------------------|

|---------------------------------------------------------------|
|--7-7-7-7-7-7-5-5--7-7-7-7-7-7--8-10--8\7-8\7--7---5~~~~~~-----|
|---------------------------------------------------------------|
|---------------------------------------------------------------|
|---------------------------------------------------------------|
|---------------------------------------------------------------|


Verse 2(play Riff1/intro)
Sooo if you should need a hand 
write down the adress of the land
but im runnin out of time

PLay bridge 1
under the oak tree tin all around me
i dont know what to prove

Play riff 3.
Lines from the story 
you put before me   A   G
i dont know what to prove

play riff 3:
Under the oak tree, tin all around me
cant you ignore me    A   G
I dont know what to choose.

Im not completly sure about the lyrics in these parts.

Play riff 3.
Your in the jungle your in the jungle
      A                 G
ill tell you when its time to leave

Then a little riff comes in.

Play riff 2:
Youre never gonna get clean

Then it continues with riff 3. and ends with a A and G.

Im not sure about the lyrics, but this is how I play the song. 

/HanMeGitarren
Comments