Vines - Highly Evolved Chords & Tabs

 

Highly Evolved Chords & Tabs

Vines Chords & Tabs

Version: 1 Type: Bass Tab 0 ratings
1 star 2 stars 3 stars 4 stars 5 stars
comments

Highly Evolved Bass Tab

   
This is my second tab, the last one was horrible, so I hope this one
comes out better.  Sir Bobbo...any commments email angustwopoint5@yahoo.com

Verse 1
G---------------------|
D---------------------|
A-7-7-7-7-6-5-3-------| x4
D---------------5-5-5-|

Chorus 1
G-------------------|
D-------------------|
A-------------------|
D-5-5/7-7-7-7-7-7-7-|

G-------------------|
D-------------------|
A-------------------| x3
D-5-x-5/7-7-7-7-7-7-|

Verse 2
G---------------------|
D---------------------|
A-7-7-7-7-6-5-3-------| x4
D---------------5-5-5-|
[ Tab from: http://www.guitartabs.cc/tabs/v/vines/highly_evolved_btab.html ]
Chorus 2
G-------------------|
D-------------------|
A-------------------|
D-5-5/7-7-7-7-7-7-7-|

G-------------------|
D-------------------|
A-------------------| x3
D-5-x-5/7-7-7-7-7-7-|

Guitar solo
G---------------------|
D---------------------|
A-7-7-7-7-6-5-3-------| x4
D---------------5-5-5-|

Chorus 3
G-------------------|
D-------------------|
A-------------------|
D-5-5/7-7-7-7-7-7-7-|

G-------------------|
D-------------------|
A-------------------| x3
D-5-x-5/7-7-7-7-7-7-|

Outro
G---------------------|
D---------------------|
A-7-7-7-7-6-5-3-------|
D---------------5-5-5-|
Comments