Vines - Gross Out Chords & Tabs

 

Gross Out Chords & Tabs

Vines Chords & Tabs

Version: 1 Type: Tab

Gross Out Tab

Artist-The Vines
Song-Gross Out
Album-Don't Listen To The Radio

Chorus

E-------------|
B-------------|
G-7-----------|
D-7----7----8-|
A-5----7----8-|
E------5----6-|

Verse
[ Tab from: http://www.guitartabs.cc/tabs/v/vines/gross_out_tab.html ]
E-------------------|
B-------------------|
G---------5---------|
D---5-----5---7-----|
A---5-----3---7-----|
E---3----------5----|

Thats It

(sic?)

S.N.O CREW


www.myspace.com/snocrew