Vines - Get Free Chords & Tabs

 

Get Free Chords & Tabs

Vines Chords & Tabs

Version: 9 Type: Tab 0 ratings
1 star 2 stars 3 stars 4 stars 5 stars
comments

Get Free Tab

The Vines
Highly Evolved
Get Free
E--------------------------------------------
B--------------------------------------------
G--------------------------------------------
D--------------------------------------------
A-5-5-5-5-5b-5b---3b-3b--5-5-5-5-5b-5b-3b-3b-
E--------------------------------------------
[ Tab from: http://www.guitartabs.cc/tabs/v/vines/get_free_tab_ver_9.html ]
E-----------------------------
B-----------------------------
G-----------------------------
D-----------------------5-x-3-
A-5-5-5-5-5b-5b---3b-3b-5-x-3-
E-----------------------5-x-3-

I don't like this song that much any more because its overplayed 
and I dont like
the Vines music very much either, but they are one of the few honest rock bands out there now
and they are pretty good(if that made any sense?)
This song is so easy but I transcribed it kind of weird. Craig Nicholls plays the last
four notes in full bend. Listen to the song and you'll probably figure it out its easy.
This isnt the entire song its just the main part, so dont cry about it. Cohan.
Comments