Vines - Get Free Chords & Tabs

 

Get Free Chords & Tabs

Vines Chords & Tabs

Version: 8 Type: Tab 0 ratings
1 star 2 stars 3 stars 4 stars 5 stars
comments

Get Free Tab

hey i love this new band and i happened to bang out out a few chords and it was this so
here you go.
the order of it all is at the end.

PM = Palm Mute
s = Slide

Intro and Main Riff
e|---------------------------------------------------------|
B|---------------------------------------------------------|
G|-7-7-7-7-7-7-8-5-7-7-7-7-7-7-8-5-7-7-7-7-7-7-8-5--5-5----|
D|-x-x-x-x-x-x-x-x-x-x-x-x-x-x-x-x-x-x-x-x-x-x-x-x--5-5-5-5|
A|-5-5-5-5-5-5-6-3-5-5-5-5-5-5-6-3-5-5-5-5-5-5-6-3--3-3-5-5|
E|------------------------------------------------------3-3|

Verse
e|---------------------------------------------------------|
B|---------------------------------------------------------|
G|-7-7-7-7-7-7-7-5-7-7-7-7-7-7-7-5-7-7-7-7-7-7-7-5--5-5----|
D|-7-7-7-7-7-7-7-5-7-7-7-7-7-7-7-5-7-7-7-7-7-7-7-5--5-5-5-5|
A|-5-5-5-5-5-5-5-3-5-5-5-5-5-5-5-3-5-5-5-5-5-5-5-3--3-3-5-5|
E|------------------------------------------------------3-3|
 PM...............................................
[ Tab from: http://www.guitartabs.cc/tabs/v/vines/get_free_tab_ver_8.html ]
Chorus Part 1 - You dont really have to slide but its better
e|---------------------------------------------------------|
B|---------------------------------------------------------|
G|-5-s-7----5-s-7----5-s-7---------------------------------|
D|-5-s-7----5-s-7----5-s-7----5---5---5---6---6---3---3----|
A|-3-s-5----3-s-5----3-s-5----5---5---5---6---6---3---3----|
E|----------------------------3---3---3---4---4---1---1----|
 'Come in, come in, come in....you know really oughta'

Chorus Part 2 - before interlude
e|---------------------------------------------------------|
B|---------------------------------------------------------|
G|-5-s-7----5-s-7----5-s-7---------------------------------|
D|-5-s-7----5-s-7----5-s-7----5---5---5---6---6---7---7----|
A|-3-s-5----3-s-5----3-s-5----5---5---5---6---6---7---7----|
E|----------------------------3---3---3---4---4---5---5----|

Solo
e|---------------------------------------------------------|
B|-3--1-3-1--3--1-3-1--3--1-3-1-4-3-1----------------------|
G|-2---------2---------2--------------2--------------------|
D|-0---------0---------0----------------3------------------|
A|---------------------------------------------------------|
E|---------------------------------------------------------|

Interlude - Part 1                    Part 2
e|----------------------------------|----------------------|
B|----------------------------------|----------------------|
G|-77-1010-1212-1313--44-77-99-1010-|-77-1010-1212-1313----|
D|-77-1010-1212-1313--44-77-99-1010-|-77-1010-1212-1313----|
A|-55--8-8-1010-1111--22-55-77--8-8-|-55--8-8-1010-1111----|
E|----------------------------------|----------------------|

Order:
Intro x2
Verse x2
Chorus Part 1 x4
Solo x2
Verse x2
Chorus Part 1 x3
Chorus Part 2 x1
Interlude Part 1 x2
Interlude Part 2 x1
Main Riff x2
Chorus Part 1 x4

ok thats it i hope you like it, its well fun to play
Comments