Vines - Get Free Chords & Tabs

 

Get Free Chords & Tabs

Vines Chords & Tabs

Version: 6 Type: Tab 0 ratings
1 star 2 stars 3 stars 4 stars 5 stars
comments

Get Free Tab

   
#----------------------------------PLEASE NOTE---------------------------------#
#This file is the author's own work and represents their interpretation of the #
#song. You may only use this file for private study, scholarship, or research. #
#------------------------------------------------------------------------------#

song: Get Free
artist: The Vines
album: Highly Evolved
transcribed by: Jon Makokis
comments & questions: tasty_nothings@hotmail.com

Intro:x2
e|-----------------------------------------------------------------|
B|-----------------------------------------------------------------|
G|--/7-7-7-7-7-7-7\-/7-7-7-7-7-7-7\-/7-7-7-7-7-7-7--5-5---------5--|
D|--/7-7-7-7-7-7-7\-/7-7-7-7-7-7-7\-/7-7-7-7-7-7-7--5-5--5-5-5--5--|
A|--/5-5-5-5-5-5-5\-/5-5-5-5-5-5-5\-/5-5-5-5-5-5-5--3-3--5-5-5--3--|
E|-------------------------------------------------------3-3-3-----|
  GB .............   .............   .............
[ Tab from: http://www.guitartabs.cc/tabs/v/vines/get_free_tab_ver_6.html ]
Verse:x2
e|-----------------------------------------------------------------|
B|-----------------------------------------------------------------|
G|--/7-7-7-7-7-7-7\-/7-7-7-7-7-7-7\-/7-7-7-7-7-7-7--5-5---------5--|
D|--/7-7-7-7-7-7-7\-/7-7-7-7-7-7-7\-/7-7-7-7-7-7-7--5-5--5-5-5--5--|
A|--/5-5-5-5-5-5-5\-/5-5-5-5-5-5-5\-/5-5-5-5-5-5-5--3-3--5-5-5--3--|
E|-------------------------------------------------------3-3-3-----|
  GB .............   .............   .............
  PM .............   .............   .........

Chorus:x4
e|----------------------------------|
B|----------------------------------|
G|--5-7--5-7--5-7-------------------|
D|--5-7--5-7--5-7--5-5-5--6-6--3-3--|
A|--3-5--3-5--3-5--5-5-5--6-6--3-3--|
E|-----------------3-3-3--4-4--1-1--|

Solo:x2
e|---------------------------------------------|
B|---------------------------------------------|
G|--7---5-7-5--7---5-7-5--7---5-7-5-7b9-5------|
D|--7-7--------7-7--------7-7-------------7----|
A|--5----------5----------5-----------------8--|
E|---------------------------------------------|

Verse:x2

Chorus:x4

Bridge:x1
e|-------------------------------------------------------------------|
B|-------------------------------------------------------------------|
G|-------------------------------------------------------------------|
D|---------6-6-8--------3-3-5--------6-6-8--------5-5-7--------5-5-7-|
A|-----8-8----------5-5----------8-8----------7-7----------7-7-------|
E|-6-6----------3-3----------6-6----------5-5----------5-5-----------|
Comments