Vines - Get Free Chords & Tabs

 

Get Free Chords & Tabs

Vines Chords & Tabs

Version: 3 Type: Tab 0 ratings
1 star 2 stars 3 stars 4 stars 5 stars
comments

Get Free Tab

#----------------------------------PLEASE NOTE---------------------------------#
#This file is the author's own work and represents their interpretation of the #
#song. You may only use this file for private study, scholarship, or research. #
#------------------------------------------------------------------------------#

Song : Get Free
Band : The Vines
Album : Highly Evolved
Tabbed by : drewgcn
Email : andrewlilley2001@hotmail.com
 
INTRO

           X3
e|------------------------|---------------|
B|------------------------|---------------|
G|------------------------|-5-5-----------|  X2
D|------------------------|-5-5--5-5-5----|  
A|-5-5^-5^-5^-5^-5^-5^-3--|-3-3--5-5-5----|
E|------------------------|------3-3-3----|
      ^ = Bend higher as
          you go along

VERSE
[ Tab from: http://www.guitartabs.cc/tabs/v/vines/get_free_tab_ver_3.html ]
        X2                 
e|-----------------|-----------------|-------------|
B|-----------------|-----------------|-------------|
G|-----------------|---------7-7-7-7-|-5-5---------|  X2
D|-----------------|---------7-7-7-7-|-5-5--5-5----|
A|-5-5-5-5-5-5-5-3-|-5-5-5-5-5-5-5-5-|-3-3--5-5----|
E|-----------------|-----------------|------3-3----|

CHORUS

    X3
e|------|--------------------|
B|------|--------------------|
G|-5--7-|--------------------|  X4
D|-5--7-|-5-5-5--6-6--3-3----|
A|-3--5-|-5-5-5--6-6--3-3----|
E|------|-3-3-3--4-4--1-1----|

BRIDGE AFTER FIRST CHORUS

      X3
e|-------------|----------------|
B|-------------|----------------|
G|-7-7-7-5-7-5-|-7-7-5---5------|  X2
D|-7-7-7-------|-------7---7----|
A|-5-5-5-------|----------------|
E|-------------|----------------|

BRIDGE AFTER SECOND CHORUS
                                                            X2
e|--------------------------------------------------|------------------|
B|--------------------------------------------------|------------------|
G|-3-3-3-3-3-3-3-3------------------3-3-3-3-3-3-3-3-|-2-2-2-2-2-2-2-2--|
D|-3-3-3-3-3-3-3-3-5-5-5-5-5-5-5-5--3-3-3-3-3-3-3-3-|-2-2-2-2-2-2-2-2--|
A|-1-1-1-1-1-1-1-1-5-5-5-5-5-5-5-5--1-1-1-1-1-1-1-1-|-0-0-0-0-0-0-0-0--|
E|-----------------3-3-3-3-3-3-3-3------------------|------------------|
Comments