Vines - Get Free Chords & Tabs

 

Get Free Chords & Tabs

Vines Chords & Tabs

Version: 13 Type: Tab 0 ratings
1 star 2 stars 3 stars 4 stars 5 stars
comments

Get Free Tab

Esta tablatura se la dedico a mi cuate MENTADO, YA APRENDE A TOCAR!!!!!

Intro
e|----------------------------|        
B|----------------------------|         
G|--77777-/-5-\-77777-/-5-\---|        
D|--xxxxx-/-x-\-xxxxx-/-x-\---|             
A|--55555-/-3-\-55555-/-3-\---|              
E|----------------------------|              
                                              
e|---------------------------|
B|---------------------------|
G|--77777---5-5--------------|
D|--xxxxx---5-5--5-5---------|
A|--55555---3-3--5-5---------|
E|---------------3-3---------|

Verse

e|----------------------------|
B|----------------------------|
G|--77777-/-5-\-77777-/-5-\---|
D|--77777-/-5-\-77777-/-5-\---|
A|--55555-/-3-\-55555-/-3-\---|
E|----------------------------|
  PM.......................
e|---------------------------|
B|---------------------------|
G|--77777---5-5--------------|
D|--77777---5-5--5-5---------|
A|--55555---3-3--5-5---------|
E|---------------3-3---------|
  PM..

Chorus

e|----------------------------|
B|----------------------------|
G|----------------------------|
D|--5-/-7-\-5-/-5-\-5-/-7-\---|
A|--3-/-5-\-3-/-3-\-3-/-5-\---|
E|----------------------------|

e|---------------------------|
B|---------------------------|
G|---------------------------|
D|--5-5-6-6-3-3--------------|
A|--5-5-6-6-3-3--------------|
E|--3-3-4-4-1-1--------------|

Solo
[ Tab from: http://www.guitartabs.cc/tabs/v/vines/get_free_tab_ver_13.html ]
e|----------------------------------|        
B|----------------------------------|         
G|--777--5-7-5--777-5-7-5--777------|        
D|--xxx---------xxx--------xxx------|             
A|--555---------555--------555------|              
E|----------------------------------|

e|----------------------|        
B|----------------------|         
G|--5-7-5-8-7-5---------|        
D|--------------7-------|             
A|----------------8-----|              
E|----------------------|

Bridge

e|------------------------------|        
B|------------------------------|         
G|--7-77-x-10-10 10-x-13-13 13--|        
D|--7-77-x-10-10 10-x-13-13 13--|             
A|--5-55-x-8 -8  8 -x-11-11 11--|              
E|------------------------------|

e|------------------------------------|        
B|------------------------------------|         
G|--4-44-x-7-77-x-9-99-x-10-10 10-----|        
D|--4-44-x-7-77-x-9-99-x-10-10 10-----|             
A|--2-22-x-5-55-x-7-77-x-8 -8  8------|              
E|------------------------------------|
              
Chorus2

e|----------------------------|
B|----------------------------|
G|----------------------------|
D|--5-/-7-\-5-/-5-\-5-/-7-\---|
A|--3-/-5-\-3-/-3-\-3-/-5-\---|
E|----------------------------|

e|---------------------------|
B|---------------------------|
G|---------------------------|
D|--5-5-6-6-7-7--------------|
A|--5-5-6-6-7-7--------------|
E|--3-3-4-4-5-5--------------|

Orden:

Intro X2
Verse X2
Chorus X4
Solo X2
Verse X2
Chorus X3
Chorus2 X1 
Bridge X2
Intro X2
Chorus X4     
  
Q' tal quedo? Alguna duda, sugerencia o comentario: jost_13@hotmail.com
ENTREN A WWW.PAGINA.DE/GENIALIDADES
Comments