Vines - Get Free Chords & Tabs

 

Get Free Chords & Tabs

Vines Chords & Tabs

Version: 12 Type: Tab 0 ratings
1 star 2 stars 3 stars 4 stars 5 stars
comments

Get Free Tab

   
#----------------------------------PLEASE NOTE---------------------------------#
#This file is the author's own work and represents their interpretation of the #
#song. Do whatever you want with it, but give credit to Hemme Luttjeboer (GW)  #
#------------------------------------------------------------------------------#
                                   ________
                            ______/GET FREE\________
                       ____/As recorded by The Vines\____
                      /From the 2002 Album HIGHLY EVOLVED\

Music by Craig Nicholls
Arranged by Hemme Luttjeboer From "Guitar World Magazine"
Transcribed by Juan Carlos Almodovar (ASCII PWTAB)

Here's the whole song, the tab you've been looking for!
There are two guitars but I saw Craig play it without
another guitar player, it's up to you if you wanna play
the big bend on the A string or play the pentagonic riff.
Have fun! 

Gtr I,II(E A D G B E) - 'w/ distortion'

 Intro (0:00)
  Q=139
 4/4
  Gtrs I, II	
|---------------------|--------------------|
|---------------------|--------------------|
|---------------------|--------------------|
|---------------------|--------------------|
|-/5-5-5-5-5b6-5-5r-3-|-5-5-5-5-5b6-5-5r-3-|
|---------------------|--------------------|


|-------------------|-----------------|
|-------------------|-----------------|
|-----------------0-|-----------------|
|-----------------0-|-5--5-0-------3--|
|-5-5-5-5-5b6-5-5-0-|-3--3-0-5-5-5-3--|
|-------------------|--------3-3-3----|


|-------------------|-------------------|
|-------------------|-------------------|
|-------------------|-------------------|
|-------------------|-------------------|
|-5-5-5-5-5b6-5-5-3-|-5-5-5b6-5-5-5-5-3-|
|-------------------|-------------------|


|-----------------------|----------------||
|-----------------------|----------------||
|-----------------------|------0---------||
|---------------------0-|-5--5-0-------3-||
|-5-5-5-5-5b6-5b6-5b6-0-|-3--3-0-5-5-5-3-||
|-----------------------|--------3-3-3---||


 1st Verse and 3rd Verses
  $
  PM---------------------------------------------
|-----------------------|-----------------------|
|-----------------------|-----------------------|
|-----------------------|-----------------------|
|-----------------------|-----------------------|
|-5-5-5-5-5-5b5.5-5b6-3-|-5-5-5-5-5-5b5.5-5p6-3-|
|-----------------------|-----------------------|


 -----|
|-----------------------|----------------|
|-----------------------|----------------|
|-------0-0-0-----0---0-|----------------|
|-------0-x-x-----x---0-|-5--5-0-------3-|
|-5-5-5---5-5b5.5-5b6-0-|-3--3-0-5-5-5-3-|
|-----------------------|--------3-3-3---|


*PM---------------------------------------------
|-----------------------|-----------------------|
|-----------------------|-----------------------|
|-----------------------|-----------------------|
|-----------------------|-----------------------|
|-5-5-5-5-5-5b5.5-5b6-3-|-5-5-5-5-5-5b5.5-5b6-3-|
|-----------------------|-----------------------|
 *

 -----|
|-------------------|----------------||
|-------------------|----------------||
|-------------------|----------------||
|-----------------0-|-5--5-0---------||
|-5-5-5-5b6-5-5-5-0-|-3--3-0-5-5-5-0-||
|-------------------|------0-3-3-3-0-||


 Chorus (0:28)
|----------------|-------------------|----------------|-------------------|
|----------------|-------------------|----------------|-------------------|
|----------------|-------------------|----------------|-------------------|
|-5-7---5-7--5-7-|-(7)---------------|-5-7---5-7--5-7-|-(7)---------------|
|-3-5-0-3-5--3-5-|-(5)-5-5-5-6-6-3-3-|-3-5-0-3-5--3-5-|-(5)-5-5-5-6-6-3-3-|
|-----0----------|-----3-3-3-4-4-1-1-|-----0----------|-----3-3-3-4-4-1-1-|


                                              To Coda
|----------------|-------------------|---------------|-------------------|
|----------------|-------------------|---------------|-------------------|
|----------------|-------------------|---------------|-------------------|
|-5-7---5-7--5-7-|-(7)---------------|-5-7--5-7--5-7-|-(7)---------------|
|-3-5-0-3-5--3-5-|-(5)-5-5-5-6-6-3-3-|-3-5--3-5--3-5-|-(5)-5-5-5-6-6-3-3-|
|-----0----------|-----3-3-3-4-4-1-1-|---------------|-----3-3-3-4-4-1-1-|


   Interlude (0:42)
||----------------------|---------------------|
||o---------------------|---------------------|
||-----------5-(5)-7--5-|----------5-(5)-7--5-|
||-------5h7------------|------5h7------------|
||o--5------------------|-5-------------------|
||----------------------|---------------------|
|   
|   Gtr II       ~~~~~~~               ~~~~~~~
||----------------------|---------------------|
||o---------------------|---------------------|
||----------------------|---------------------|
||----------------------|---------------------|
||o-5b6--------(5)------|-5b6--------(5)------|
||----------------------|---------------------|
[ Tab from: http://www.guitartabs.cc/tabs/v/vines/get_free_tab_ver_12.html ]
				             x2
|---------------------|----------------------||
|---------------------|---------------------o||
|----------5-(5)-7--5-|-7b8r(7)-5------------||
|------5h7------------|-----------7-(7)-3----||
|-5-------------------|---------------------o||
|---------------------|----------------------||
|
|            ~~~~~~~~ LetRing-|    *---|     x2
|---------------------|----------------------||
|---------------------|---------------------o||
|---------------------|----------------------||
|---------------------|------3----7-(7)-3----||
|-5b7--------(5)------|-3-------------------o||
|---------------------|----------------------||
       *

 2nd Verse (0:56)
  Gtrs I, II
  PM--------------------------------------|
|-----------------|-----------------|-----------------------|----------------|
|-----------------|-----------------|-----------------------|----------------|
|-----------------|-----------------|-----------------------|----------------|
|-----------------|-----------------|-----------------------|-5--5-0-------3-|
|-5-5-5-5-5-5-5-3-|-5-5-5-5-5-5-5-3-|-5-5-5-5-5-5b5.5-5b6-0-|-3--3-0-5-5-5-3-|
|-----------------|-----------------|-----------------------|--------3-3-3---|


  PM------------------------------------------
|-------------------|-----------------------|
|-------------------|-----------------------|
|-------------------|-----------------------|
|-------------------|-----------------------|
|-5-5-5-5-5-5b6-5-3-|-5-5-5-5-5-5b5.5-5b6-3-|
|-------------------|-----------------------|


 -------|
|--------------------|----------------||
|--------------------|----------------||
|---------0---0-0--0-|----------------||
|---------x---x-x--0-|-5--5-0-------0-||
|-5-5-5-5-5b6-5-5r-0-|-3--3-0-5-5-5-0-||
|--------------------|--------3-3-3-0-||

 Chorus (1:09)
|---------------|-------------------|---------------|-------------------|
|---------------|-------------------|---------------|-------------------|
|---------------|-------------------|---------------|-------------------|
|-5-7--5-7--5-7-|-(7)---------------|-5-7--5-7--5-7-|-(7)---------------|
|-3-5--3-5--3-5-|-(5)-5-5-5-6-6-3-3-|-3-5--3-5--3-5-|-(5)-5-5-5-6-6-3-3-|
|---------------|-----3-3-3-4-4-1-1-|---------------|-----3-3-3-4-4-1-1-|


|---------------|-------------------|---------------|-----------------||
|---------------|-------------------|---------------|-----------------||
|---------------|-------------------|---------------|-----------------||
|-5-7--5-7--5-7-|-(7)---------------|-5-7--5-7--5-7-|-----------------||
|-3-5--3-5--3-5-|-(5)-5-5-5-6-6-3-3-|-3-5--3-5--3-5-|-0-5-5-5-6-6-7-7-||
|---------------|-----3-3-3-4-4-1-1-|---------------|-0-3-3-3-4-4-5-5-||


 Bridge (1:23)
  Gtrs I, II
                ~           
|-----------------|---------------------|
|-----------------|---------------------|
|-----------------|---------------------|
|---------6-6-8---|-----------3-3-5-----|
|-----8-8---------|-------5-5-----------|
|-6-6-----------3-|-(3)-3-----------5/6-|


|-----------------|-------------------------|
|-----------------|-------------------------|
|-----------------|-------------------------|
|---------6-6-8---|-----------5-5-7---------|
|-----8-8---------|-------7-7---------------|
|-6-6-----------5-|-(5)-5-----------5b6r(5)-|


        D.S. al Coda   &
  Gtr I
|-------------------||-------------------|
|---------------0---||-------------------|
|---------------0---||-------------------|
|-----------5-5-0---||-(7)---------------|
|-------7-7-----0-3-||-(5)-5-5-5-6-6-3-3-|
|-(5)-5---------0---||-----3-3-3-4-4-1-1-|
|
|         Gtr II
|-------------------||-------------------|
|-------------------||-------------------|
|-------------------||-------------------|
|-------------------||-(7)---------------|
|-------------------||-(5)-5-5-5-6-6-3-3-|
|-------------------||-----3-3-3-4-4-1-1-|


|-----------------------|-------------*|
|----------------0------|-(0)---0-----*|
|----------------0------|-(0)---------*|
|-----------------------|-------------*|
|-----------------------|-------------*|
|-----------------------|-------------*|
|
|-----------------------|-------------*|
|-------------0-(0)-----|-------------*|
|-----------------------|-------------*|
|-----------------------|-------------*|
|-----------------------|-------------*|
|-1b2-1b2-(1)---------1-|-(1)---------*|


Tablature Legend
----------------
 h   - hammer-on
 p   - pull-off
 b   - bend
 r   - bend release (if no number after the r, then release immediately)
 /\  - slide
 ~   - vibrato
( )  - Keep the note ringing
 x   - Palm Mute the strings

Misc Legend
-----------
 |  - bar
||  - double bar
||o - repeat start
o|| - repeat end
*|  - double bar (ending)
 :  - bar (freetime)
 $  - Segno
 &  - Coda

***************************************************************************************
* Generated using Power Tab Editor by Brad Larsen - http://powertab.guitarnetwork.org *
* 	   GO TO THAT WEBSITE AND DOWNLOAD POWERTAB IT'S FREE & ITS GREAT!            *
***************************************************************************************
Comments